ISO-10303-21;
HEADER;
/* Generated by software containing ST-Developer
 * from STEP Tools, Inc. (www.steptools.com) 
 */

FILE_DESCRIPTION(
/* description */ ('\X2\0161\X0\roub s int. podlo\X2\017E\X0\kou, ISO 
7380'),
/* implementation_level */ '2;1');

FILE_NAME(
/* name */ 
'D:\\Work\\Zakazky\\2013\\AlutecKK\\stp\\Srouby\\ISO7380int\\200520-2.
stp',
/* time_stamp */ '2013-12-06T07:48:07+01:00',
/* author */ ('PC'),
/* organization */ (''),
/* preprocessor_version */ 'ST-DEVELOPER v15.2',
/* originating_system */ 'Autodesk Inventor 2014',
/* authorisation */ '');

FILE_SCHEMA (('AUTOMOTIVE_DESIGN { 1 0 10303 214 3 1 1 }'));
ENDSEC;

DATA;
#10=SHAPE_REPRESENTATION_RELATIONSHIP('SRR','None',#403,#11);
#11=ADVANCED_BREP_SHAPE_REPRESENTATION($,(#230),#394);
#12=STYLED_ITEM($,(#411),#230);
#13=(
BOUNDED_CURVE()
B_SPLINE_CURVE(2,(#359,#360,#361),.UNSPECIFIED.,.F.,.F.)
B_SPLINE_CURVE_WITH_KNOTS((3,3),(0.,0.175265420711685),.UNSPECIFIED.)
CURVE()
GEOMETRIC_REPRESENTATION_ITEM()
RATIONAL_B_SPLINE_CURVE((1.,1.15470053837925,1.))
REPRESENTATION_ITEM($)
);
#14=(
BOUNDED_CURVE()
B_SPLINE_CURVE(2,(#366,#367,#368),.UNSPECIFIED.,.F.,.F.)
B_SPLINE_CURVE_WITH_KNOTS((3,3),(0.,0.175265420711685),.UNSPECIFIED.)
CURVE()
GEOMETRIC_REPRESENTATION_ITEM()
RATIONAL_B_SPLINE_CURVE((1.,1.15470053837924,1.))
REPRESENTATION_ITEM($)
);
#15=(
BOUNDED_CURVE()
B_SPLINE_CURVE(2,(#372,#373,#374),.UNSPECIFIED.,.F.,.F.)
B_SPLINE_CURVE_WITH_KNOTS((3,3),(0.,0.175265420711685),.UNSPECIFIED.)
CURVE()
GEOMETRIC_REPRESENTATION_ITEM()
RATIONAL_B_SPLINE_CURVE((1.,1.15470053837924,1.))
REPRESENTATION_ITEM($)
);
#16=(
BOUNDED_CURVE()
B_SPLINE_CURVE(2,(#378,#379,#380),.UNSPECIFIED.,.F.,.F.)
B_SPLINE_CURVE_WITH_KNOTS((3,3),(0.,0.175265420711685),.UNSPECIFIED.)
CURVE()
GEOMETRIC_REPRESENTATION_ITEM()
RATIONAL_B_SPLINE_CURVE((1.,1.15470053837924,1.))
REPRESENTATION_ITEM($)
);
#17=(
BOUNDED_CURVE()
B_SPLINE_CURVE(2,(#384,#385,#386),.UNSPECIFIED.,.F.,.F.)
B_SPLINE_CURVE_WITH_KNOTS((3,3),(0.,0.175265420711685),.UNSPECIFIED.)
CURVE()
GEOMETRIC_REPRESENTATION_ITEM()
RATIONAL_B_SPLINE_CURVE((1.,1.15470053837924,1.))
REPRESENTATION_ITEM($)
);
#18=(
BOUNDED_CURVE()
B_SPLINE_CURVE(2,(#389,#390,#391),.UNSPECIFIED.,.F.,.F.)
B_SPLINE_CURVE_WITH_KNOTS((3,3),(0.,0.175265420711685),.UNSPECIFIED.)
CURVE()
GEOMETRIC_REPRESENTATION_ITEM()
RATIONAL_B_SPLINE_CURVE((1.,1.15470053837925,1.))
REPRESENTATION_ITEM($)
);
#19=LINE($,#346,#31);
#20=LINE($,#348,#32);
#21=LINE($,#350,#33);
#22=LINE($,#352,#34);
#23=LINE($,#354,#35);
#24=LINE($,#355,#36);
#25=LINE($,#362,#37);
#26=LINE($,#363,#38);
#27=LINE($,#369,#39);
#28=LINE($,#375,#40);
#29=LINE($,#381,#41);
#30=LINE($,#387,#42);
#31=VECTOR($,#292,1.73205080756888);
#32=VECTOR($,#293,1.73205080756888);
#33=VECTOR($,#294,1.73205080756888);
#34=VECTOR($,#295,1.73205080756888);
#35=VECTOR($,#296,1.73205080756888);
#36=VECTOR($,#297,1.73205080756888);
#37=VECTOR($,#300,1.56);
#38=VECTOR($,#301,1.56);
#39=VECTOR($,#304,1.56);
#40=VECTOR($,#307,1.56);
#41=VECTOR($,#310,1.56);
#42=VECTOR($,#313,1.56);
#43=CONICAL_SURFACE($,#243,2.25462,44.9999999999999);
#44=CONICAL_SURFACE($,#255,0.866025403784439,59.9999999999999);
#45=TOROIDAL_SURFACE($,#237,2.7,0.2);
#46=TOROIDAL_SURFACE($,#246,2.38,2.37);
#47=CYLINDRICAL_SURFACE($,#235,5.7);
#48=CYLINDRICAL_SURFACE($,#240,2.5);
#49=FACE_BOUND($,#74,.T.);
#50=FACE_BOUND($,#76,.T.);
#51=FACE_BOUND($,#78,.T.);
#52=FACE_BOUND($,#80,.T.);
#53=FACE_BOUND($,#82,.T.);
#54=FACE_BOUND($,#84,.T.);
#55=FACE_BOUND($,#87,.T.);
#56=FACE_BOUND($,#88,.T.);
#57=FACE_BOUND($,#89,.T.);
#58=FACE_OUTER_BOUND($,#73,.T.);
#59=FACE_OUTER_BOUND($,#75,.T.);
#60=FACE_OUTER_BOUND($,#77,.T.);
#61=FACE_OUTER_BOUND($,#79,.T.);
#62=FACE_OUTER_BOUND($,#81,.T.);
#63=FACE_OUTER_BOUND($,#83,.T.);
#64=FACE_OUTER_BOUND($,#85,.T.);
#65=FACE_OUTER_BOUND($,#86,.T.);
#66=FACE_OUTER_BOUND($,#90,.T.);
#67=FACE_OUTER_BOUND($,#91,.T.);
#68=FACE_OUTER_BOUND($,#92,.T.);
#69=FACE_OUTER_BOUND($,#93,.T.);
#70=FACE_OUTER_BOUND($,#94,.T.);
#71=FACE_OUTER_BOUND($,#95,.T.);
#72=FACE_OUTER_BOUND($,#96,.T.);
#73=EDGE_LOOP($,(#151));
#74=EDGE_LOOP($,(#152));
#75=EDGE_LOOP($,(#153));
#76=EDGE_LOOP($,(#154));
#77=EDGE_LOOP($,(#155));
#78=EDGE_LOOP($,(#156));
#79=EDGE_LOOP($,(#157));
#80=EDGE_LOOP($,(#158));
#81=EDGE_LOOP($,(#159));
#82=EDGE_LOOP($,(#160));
#83=EDGE_LOOP($,(#161));
#84=EDGE_LOOP($,(#162));
#85=EDGE_LOOP($,(#163));
#86=EDGE_LOOP($,(#164));
#87=EDGE_LOOP($,(#165));
#88=EDGE_LOOP($,(#166,#167,#168,#169,#170,#171));
#89=EDGE_LOOP($,(#172));
#90=EDGE_LOOP($,(#173,#174,#175,#176));
#91=EDGE_LOOP($,(#177,#178,#179,#180));
#92=EDGE_LOOP($,(#181,#182,#183,#184));
#93=EDGE_LOOP($,(#185,#186,#187,#188));
#94=EDGE_LOOP($,(#189,#190,#191,#192));
#95=EDGE_LOOP($,(#193,#194,#195,#196));
#96=EDGE_LOOP($,(#197,#198,#199,#200,#201,#202));
#97=CIRCLE($,#233,5.7);
#98=CIRCLE($,#234,4.74389509073478);
#99=CIRCLE($,#236,5.7);
#100=CIRCLE($,#238,2.7);
#101=CIRCLE($,#239,2.5);
#102=CIRCLE($,#241,2.5);
#103=CIRCLE($,#244,2.00924);
#104=CIRCLE($,#247,2.38);
#105=VERTEX_POINT($,#320);
#106=VERTEX_POINT($,#322);
#107=VERTEX_POINT($,#325);
#108=VERTEX_POINT($,#328);
#109=VERTEX_POINT($,#330);
#110=VERTEX_POINT($,#333);
#111=VERTEX_POINT($,#337);
#112=VERTEX_POINT($,#341);
#113=VERTEX_POINT($,#344);
#114=VERTEX_POINT($,#345);
#115=VERTEX_POINT($,#347);
#116=VERTEX_POINT($,#349);
#117=VERTEX_POINT($,#351);
#118=VERTEX_POINT($,#353);
#119=VERTEX_POINT($,#357);
#120=VERTEX_POINT($,#358);
#121=VERTEX_POINT($,#365);
#122=VERTEX_POINT($,#371);
#123=VERTEX_POINT($,#377);
#124=VERTEX_POINT($,#383);
#125=EDGE_CURVE($,#105,#105,#97,.T.);
#126=EDGE_CURVE($,#106,#106,#98,.T.);
#127=EDGE_CURVE($,#107,#107,#99,.T.);
#128=EDGE_CURVE($,#108,#108,#100,.T.);
#129=EDGE_CURVE($,#109,#109,#101,.T.);
#130=EDGE_CURVE($,#110,#110,#102,.T.);
#131=EDGE_CURVE($,#111,#111,#103,.T.);
#132=EDGE_CURVE($,#112,#112,#104,.T.);
#133=EDGE_CURVE($,#113,#114,#19,.T.);
#134=EDGE_CURVE($,#114,#115,#20,.T.);
#135=EDGE_CURVE($,#115,#116,#21,.T.);
#136=EDGE_CURVE($,#116,#117,#22,.T.);
#137=EDGE_CURVE($,#117,#118,#23,.T.);
#138=EDGE_CURVE($,#118,#113,#24,.T.);
#139=EDGE_CURVE($,#119,#120,#13,.T.);
#140=EDGE_CURVE($,#119,#118,#25,.T.);
#141=EDGE_CURVE($,#120,#117,#26,.T.);
#142=EDGE_CURVE($,#121,#119,#14,.T.);
#143=EDGE_CURVE($,#121,#113,#27,.T.);
#144=EDGE_CURVE($,#122,#121,#15,.T.);
#145=EDGE_CURVE($,#122,#114,#28,.T.);
#146=EDGE_CURVE($,#123,#122,#16,.T.);
#147=EDGE_CURVE($,#115,#123,#29,.T.);
#148=EDGE_CURVE($,#120,#124,#17,.T.);
#149=EDGE_CURVE($,#124,#116,#30,.T.);
#150=EDGE_CURVE($,#124,#123,#18,.T.);
#151=ORIENTED_EDGE($,*,*,#125,.F.);
#152=ORIENTED_EDGE($,*,*,#126,.F.);
#153=ORIENTED_EDGE($,*,*,#125,.T.);
#154=ORIENTED_EDGE($,*,*,#127,.T.);
#155=ORIENTED_EDGE($,*,*,#128,.T.);
#156=ORIENTED_EDGE($,*,*,#129,.T.);
#157=ORIENTED_EDGE($,*,*,#130,.F.);
#158=ORIENTED_EDGE($,*,*,#129,.F.);
#159=ORIENTED_EDGE($,*,*,#127,.F.);
#160=ORIENTED_EDGE($,*,*,#128,.F.);
#161=ORIENTED_EDGE($,*,*,#130,.T.);
#162=ORIENTED_EDGE($,*,*,#131,.T.);
#163=ORIENTED_EDGE($,*,*,#131,.F.);
#164=ORIENTED_EDGE($,*,*,#132,.T.);
#165=ORIENTED_EDGE($,*,*,#126,.T.);
#166=ORIENTED_EDGE($,*,*,#133,.T.);
#167=ORIENTED_EDGE($,*,*,#134,.T.);
#168=ORIENTED_EDGE($,*,*,#135,.T.);
#169=ORIENTED_EDGE($,*,*,#136,.T.);
#170=ORIENTED_EDGE($,*,*,#137,.T.);
#171=ORIENTED_EDGE($,*,*,#138,.T.);
#172=ORIENTED_EDGE($,*,*,#132,.F.);
#173=ORIENTED_EDGE($,*,*,#139,.F.);
#174=ORIENTED_EDGE($,*,*,#140,.T.);
#175=ORIENTED_EDGE($,*,*,#137,.F.);
#176=ORIENTED_EDGE($,*,*,#141,.F.);
#177=ORIENTED_EDGE($,*,*,#142,.F.);
#178=ORIENTED_EDGE($,*,*,#143,.T.);
#179=ORIENTED_EDGE($,*,*,#138,.F.);
#180=ORIENTED_EDGE($,*,*,#140,.F.);
#181=ORIENTED_EDGE($,*,*,#144,.F.);
#182=ORIENTED_EDGE($,*,*,#145,.T.);
#183=ORIENTED_EDGE($,*,*,#133,.F.);
#184=ORIENTED_EDGE($,*,*,#143,.F.);
#185=ORIENTED_EDGE($,*,*,#146,.F.);
#186=ORIENTED_EDGE($,*,*,#147,.F.);
#187=ORIENTED_EDGE($,*,*,#134,.F.);
#188=ORIENTED_EDGE($,*,*,#145,.F.);
#189=ORIENTED_EDGE($,*,*,#148,.F.);
#190=ORIENTED_EDGE($,*,*,#141,.T.);
#191=ORIENTED_EDGE($,*,*,#136,.F.);
#192=ORIENTED_EDGE($,*,*,#149,.F.);
#193=ORIENTED_EDGE($,*,*,#150,.F.);
#194=ORIENTED_EDGE($,*,*,#149,.T.);
#195=ORIENTED_EDGE($,*,*,#135,.F.);
#196=ORIENTED_EDGE($,*,*,#147,.T.);
#197=ORIENTED_EDGE($,*,*,#146,.T.);
#198=ORIENTED_EDGE($,*,*,#144,.T.);
#199=ORIENTED_EDGE($,*,*,#142,.T.);
#200=ORIENTED_EDGE($,*,*,#139,.T.);
#201=ORIENTED_EDGE($,*,*,#148,.T.);
#202=ORIENTED_EDGE($,*,*,#150,.T.);
#203=PLANE($,#232);
#204=PLANE($,#242);
#205=PLANE($,#245);
#206=PLANE($,#248);
#207=PLANE($,#249);
#208=PLANE($,#250);
#209=PLANE($,#251);
#210=PLANE($,#252);
#211=PLANE($,#253);
#212=PLANE($,#254);
#213=ADVANCED_FACE($,(#58,#49),#203,.T.);
#214=ADVANCED_FACE($,(#59,#50),#47,.T.);
#215=ADVANCED_FACE($,(#60,#51),#45,.F.);
#216=ADVANCED_FACE($,(#61,#52),#48,.T.);
#217=ADVANCED_FACE($,(#62,#53),#204,.T.);
#218=ADVANCED_FACE($,(#63,#54),#43,.T.);
#219=ADVANCED_FACE($,(#64),#205,.T.);
#220=ADVANCED_FACE($,(#65,#55),#46,.T.);
#221=ADVANCED_FACE($,(#56,#57),#206,.T.);
#222=ADVANCED_FACE($,(#66),#207,.F.);
#223=ADVANCED_FACE($,(#67),#208,.F.);
#224=ADVANCED_FACE($,(#68),#209,.F.);
#225=ADVANCED_FACE($,(#69),#210,.F.);
#226=ADVANCED_FACE($,(#70),#211,.F.);
#227=ADVANCED_FACE($,(#71),#212,.F.);
#228=ADVANCED_FACE($,(#72),#44,.F.);
#229=CLOSED_SHELL($,(#213,#214,#215,#216,#217,#218,#219,#220,#221,#222,
#223,#224,#225,#226,#227,#228));
#230=MANIFOLD_SOLID_BREP('Solid1',#229);
#231=AXIS2_PLACEMENT_3D('placement',#318,#256,#257);
#232=AXIS2_PLACEMENT_3D($,#319,#258,#259);
#233=AXIS2_PLACEMENT_3D($,#321,#260,#261);
#234=AXIS2_PLACEMENT_3D($,#323,#262,#263);
#235=AXIS2_PLACEMENT_3D($,#324,#264,#265);
#236=AXIS2_PLACEMENT_3D($,#326,#266,#267);
#237=AXIS2_PLACEMENT_3D($,#327,#268,#269);
#238=AXIS2_PLACEMENT_3D($,#329,#270,#271);
#239=AXIS2_PLACEMENT_3D($,#331,#272,#273);
#240=AXIS2_PLACEMENT_3D($,#332,#274,#275);
#241=AXIS2_PLACEMENT_3D($,#334,#276,#277);
#242=AXIS2_PLACEMENT_3D($,#335,#278,#279);
#243=AXIS2_PLACEMENT_3D($,#336,#280,#281);
#244=AXIS2_PLACEMENT_3D($,#338,#282,#283);
#245=AXIS2_PLACEMENT_3D($,#339,#284,#285);
#246=AXIS2_PLACEMENT_3D($,#340,#286,#287);
#247=AXIS2_PLACEMENT_3D($,#342,#288,#289);
#248=AXIS2_PLACEMENT_3D($,#343,#290,#291);
#249=AXIS2_PLACEMENT_3D($,#356,#298,#299);
#250=AXIS2_PLACEMENT_3D($,#364,#302,#303);
#251=AXIS2_PLACEMENT_3D($,#370,#305,#306);
#252=AXIS2_PLACEMENT_3D($,#376,#308,#309);
#253=AXIS2_PLACEMENT_3D($,#382,#311,#312);
#254=AXIS2_PLACEMENT_3D($,#388,#314,#315);
#255=AXIS2_PLACEMENT_3D($,#392,#316,#317);
#256=DIRECTION('axis',(0.,0.,1.));
#257=DIRECTION('refdir',(1.,0.,0.));
#258=DIRECTION('center_axis',(-1.,0.,0.));
#259=DIRECTION('ref_axis',(0.,0.,1.));
#260=DIRECTION('center_axis',(1.,0.,0.));
#261=DIRECTION('ref_axis',(0.,-1.,0.));
#262=DIRECTION('center_axis',(-1.,-2.98346948824217E-018,0.));
#263=DIRECTION('ref_axis',(0.,0.,-1.));
#264=DIRECTION('center_axis',(-1.,0.,0.));
#265=DIRECTION('ref_axis',(0.,-1.,0.));
#266=DIRECTION('center_axis',(-1.,0.,0.));
#267=DIRECTION('ref_axis',(0.,-1.,0.));
#268=DIRECTION('center_axis',(1.,5.96693897648435E-018,0.));
#269=DIRECTION('ref_axis',(0.,0.,-1.));
#270=DIRECTION('center_axis',(1.,5.96693897648435E-018,0.));
#271=DIRECTION('ref_axis',(5.96693897648435E-018,-1.,1.22464679914735E-016));
#272=DIRECTION('center_axis',(-1.,-5.96693897648435E-018,0.));
#273=DIRECTION('ref_axis',(0.,-1.,1.22464679914735E-016));
#274=DIRECTION('center_axis',(1.,5.96693897648435E-018,0.));
#275=DIRECTION('ref_axis',(0.,1.,0.));
#276=DIRECTION('center_axis',(1.,5.96693897648435E-018,0.));
#277=DIRECTION('ref_axis',(0.,-1.,0.));
#278=DIRECTION('center_axis',(1.,5.96693897648435E-018,0.));
#279=DIRECTION('ref_axis',(0.,0.,-1.));
#280=DIRECTION('center_axis',(-1.,-5.96693897648435E-018,0.));
#281=DIRECTION('ref_axis',(2.65876566097866E-018,-1.,0.));
#282=DIRECTION('center_axis',(-1.,-5.96693897648435E-018,0.));
#283=DIRECTION('ref_axis',(5.96693897648435E-018,-1.,0.));
#284=DIRECTION('center_axis',(1.,5.96693897648435E-018,0.));
#285=DIRECTION('ref_axis',(0.,0.,-1.));
#286=DIRECTION('center_axis',(1.,5.96693897648435E-018,0.));
#287=DIRECTION('ref_axis',(0.,0.,-1.));
#288=DIRECTION('center_axis',(1.,5.96693897648435E-018,0.));
#289=DIRECTION('ref_axis',(5.96693897648435E-018,-1.,1.22464679914735E-016));
#290=DIRECTION('center_axis',(-1.,-5.96693897648435E-018,0.));
#291=DIRECTION('ref_axis',(0.,0.,1.));
#292=DIRECTION($,(-5.73710050185357E-033,9.61481343191783E-016,1.));
#293=DIRECTION($,(5.16752073646696E-018,-0.866025403784438,0.500000000000001));
#294=DIRECTION($,(5.16752073646696E-018,-0.866025403784439,-0.5));
#295=DIRECTION($,(9.56183416975594E-034,-1.60246890531964E-016,-1.));
#296=DIRECTION($,(-5.16752073646696E-018,0.866025403784438,-0.5));
#297=DIRECTION($,(-5.16752073646696E-018,0.866025403784439,0.5));
#298=DIRECTION('center_axis',(2.98346948824217E-018,-0.5,-0.866025403784439));
#299=DIRECTION('ref_axis',(-1.,0.,0.));
#300=DIRECTION($,(-1.,-5.96693897648434E-018,0.));
#301=DIRECTION($,(-1.,-5.96693897648434E-018,0.));
#302=DIRECTION('center_axis',(-2.98346948824217E-018,0.5,-0.866025403784439));
#303=DIRECTION('ref_axis',(-1.,0.,0.));
#304=DIRECTION($,(-1.,-5.96693897648435E-018,0.));
#305=DIRECTION('center_axis',(-5.96693897648435E-018,1.,-9.61481343191783E-016));
#306=DIRECTION('ref_axis',(0.,9.54791801177635E-016,1.));
#307=DIRECTION($,(-1.,-5.96693897648434E-018,0.));
#308=DIRECTION('center_axis',(-2.98346948824218E-018,0.500000000000001,
0.866025403784438));
#309=DIRECTION('ref_axis',(1.,0.,0.));
#310=DIRECTION($,(1.,5.96693897648434E-018,0.));
#311=DIRECTION('center_axis',(5.96693897648435E-018,-1.,1.60246890531964E-016));
#312=DIRECTION('ref_axis',(0.,-1.55431223447522E-016,-1.));
#313=DIRECTION($,(-1.,-5.96693897648434E-018,0.));
#314=DIRECTION('center_axis',(2.98346948824217E-018,-0.5,0.866025403784439));
#315=DIRECTION('ref_axis',(1.,0.,0.));
#316=DIRECTION('center_axis',(-1.,-5.96693897648435E-018,0.));
#317=DIRECTION('ref_axis',(0.,1.,0.));
#318=CARTESIAN_POINT('',(0.,0.,0.));
#319=CARTESIAN_POINT('Origin',(-0.55,0.,0.));
#320=CARTESIAN_POINT('',(-0.55,5.7,6.98048675513991E-016));
#321=CARTESIAN_POINT('Origin',(-0.55,0.,0.));
#322=CARTESIAN_POINT('',(-0.55,4.58846187682167E-016,4.74389509073478));
#323=CARTESIAN_POINT('Origin',(-0.55,-1.22113406153752E-016,0.));
#324=CARTESIAN_POINT('Origin',(0.,0.,0.));
#325=CARTESIAN_POINT('',(0.,5.7,6.98048675513991E-016));
#326=CARTESIAN_POINT('Origin',(0.,0.,0.));
#327=CARTESIAN_POINT('Origin',(0.200000000000002,-1.1814539173439E-016,
0.));
#328=CARTESIAN_POINT('',(2.23902978353334E-015,2.7,0.));
#329=CARTESIAN_POINT('Origin',(2.25514051876985E-015,-1.19338779529687E-016,
0.));
#330=CARTESIAN_POINT('',(0.200000000000002,2.5,-6.12323399573676E-016));
#331=CARTESIAN_POINT('Origin',(0.200000000000002,-1.1814539173439E-016,
0.));
#332=CARTESIAN_POINT('Origin',(10.8,-5.4895838583656E-017,0.));
#333=CARTESIAN_POINT('',(19.50924,2.5,3.06161699786838E-016));
#334=CARTESIAN_POINT('Origin',(19.50924,-2.92833497209946E-018,0.));
#335=CARTESIAN_POINT('Origin',(2.22044604925031E-015,3.625,0.));
#336=CARTESIAN_POINT('Origin',(19.75462,-1.46416748604973E-018,0.));
#337=CARTESIAN_POINT('',(20.,2.00924,-2.46060933471883E-016));
#338=CARTESIAN_POINT('Origin',(20.,4.81482486096809E-034,0.));
#339=CARTESIAN_POINT('Origin',(20.,1.25,0.));
#340=CARTESIAN_POINT('Origin',(-0.379999999999994,-1.21606216340751E-016,
0.));
#341=CARTESIAN_POINT('',(-2.74999999999999,2.38,0.));
#342=CARTESIAN_POINT('Origin',(-2.74999999999999,-1.35747861715019E-016,
0.));
#343=CARTESIAN_POINT('Origin',(-2.74999999999999,3.24102540378444,0.));
#344=CARTESIAN_POINT('',(-2.74999999999999,1.5,-0.866025403784439));
#345=CARTESIAN_POINT('',(-2.74999999999999,1.5,0.866025403784437));
#346=CARTESIAN_POINT($,(-2.74999999999999,1.5,0.433012701892218));
#347=CARTESIAN_POINT('',(-2.74999999999999,7.63671860299626E-017,1.73205080756888));
#348=CARTESIAN_POINT($,(-2.74999999999999,0.375,1.51554445662277));
#349=CARTESIAN_POINT('',(-2.74999999999999,-1.5,0.866025403784439));
#350=CARTESIAN_POINT($,(-2.74999999999999,-1.125,1.08253175473055));
#351=CARTESIAN_POINT('',(-2.74999999999999,-1.5,-0.866025403784438));
#352=CARTESIAN_POINT($,(-2.74999999999999,-1.5,-0.433012701892219));
#353=CARTESIAN_POINT('',(-2.74999999999999,-3.44634777055442E-016,-1.73205080756888));
#354=CARTESIAN_POINT($,(-2.74999999999999,-0.375,-1.51554445662277));
#355=CARTESIAN_POINT($,(-2.74999999999999,1.125,-1.08253175473055));
#356=CARTESIAN_POINT('Origin',(-2.74999999999999,-3.44634777055442E-016,
-1.73205080756888));
#357=CARTESIAN_POINT('',(-1.19,-5.45803087509263E-016,-1.73205080756888));
#358=CARTESIAN_POINT('',(-1.19,-1.5,-0.866025403784438));
#359=CARTESIAN_POINT('Ctrl Pts',(-1.18999999999999,-1.22307586510196E-014,
-1.73205080756887));
#360=CARTESIAN_POINT('Ctrl Pts',(-0.939999999999999,-0.750000000000001,
-1.29903810567666));
#361=CARTESIAN_POINT('Ctrl Pts',(-1.18999999999999,-1.49999999999999,-0.866025403784445));
#362=CARTESIAN_POINT($,(-1.96999999999999,-5.55111512312578E-016,-1.73205080756888));
#363=CARTESIAN_POINT($,(-1.96999999999999,-1.5,-0.866025403784438));
#364=CARTESIAN_POINT('Origin',(-2.74999999999999,1.5,-0.866025403784439));
#365=CARTESIAN_POINT('',(-1.19,1.5,-0.866025403784441));
#366=CARTESIAN_POINT('Ctrl Pts',(-1.18999999999999,1.49999999999999,-0.866025403784445));
#367=CARTESIAN_POINT('Ctrl Pts',(-0.939999999999999,0.75,-1.29903810567666));
#368=CARTESIAN_POINT('Ctrl Pts',(-1.18999999999999,1.02512575976397E-014,
-1.73205080756887));
#369=CARTESIAN_POINT($,(-1.96999999999999,1.5,-0.866025403784441));
#370=CARTESIAN_POINT('Origin',(-2.74999999999999,1.5,0.866025403784437));
#371=CARTESIAN_POINT('',(-1.19,1.5,0.866025403784437));
#372=CARTESIAN_POINT('Ctrl Pts',(-1.18999999999999,1.5,0.866025403784425));
#373=CARTESIAN_POINT('Ctrl Pts',(-0.939999999999999,1.5,-1.52655665885959E-015));
#374=CARTESIAN_POINT('Ctrl Pts',(-1.18999999999999,1.5,-0.866025403784428));
#375=CARTESIAN_POINT($,(-1.96999999999999,1.5,0.866025403784437));
#376=CARTESIAN_POINT('Origin',(-2.74999999999999,-1.75216615823211E-017,
1.73205080756888));
#377=CARTESIAN_POINT('',(-1.19,9.30842480331558E-018,1.73205080756888));
#378=CARTESIAN_POINT('Ctrl Pts',(-1.18999999999999,1.0528813353796E-014,
1.73205080756887));
#379=CARTESIAN_POINT('Ctrl Pts',(-0.939999999999998,0.750000000000001,1.29903810567666));
#380=CARTESIAN_POINT('Ctrl Pts',(-1.18999999999999,1.49999999999999,0.866025403784443));
#381=CARTESIAN_POINT($,(-1.96999999999999,0.,1.73205080756888));
#382=CARTESIAN_POINT('Origin',(-2.74999999999999,-1.5,-0.866025403784438));
#383=CARTESIAN_POINT('',(-1.19,-1.5,0.866025403784438));
#384=CARTESIAN_POINT('Ctrl Pts',(-1.18999999999999,-1.5,-0.866025403784426));
#385=CARTESIAN_POINT('Ctrl Pts',(-0.939999999999999,-1.5,6.93889390390723E-017));
#386=CARTESIAN_POINT('Ctrl Pts',(-1.18999999999999,-1.5,0.866025403784426));
#387=CARTESIAN_POINT($,(-1.96999999999999,-1.5,0.866025403784438));
#388=CARTESIAN_POINT('Origin',(-2.74999999999999,-1.5,0.866025403784439));
#389=CARTESIAN_POINT('Ctrl Pts',(-1.18999999999999,-1.49999999999999,0.866025403784445));
#390=CARTESIAN_POINT('Ctrl Pts',(-0.939999999999999,-0.75,1.29903810567666));
#391=CARTESIAN_POINT('Ctrl Pts',(-1.18999999999999,-1.09817577483163E-014,
1.73205080756887));
#392=CARTESIAN_POINT('Origin',(-0.689999999999995,-1.23455967423461E-016,
0.));
#393=UNCERTAINTY_MEASURE_WITH_UNIT(LENGTH_MEASURE(0.01),#395,
'DISTANCE_ACCURACY_VALUE',
'Maximum model space distance between geometric entities at asserted c
onnectivities');
#394=(
GEOMETRIC_REPRESENTATION_CONTEXT(3)
GLOBAL_UNCERTAINTY_ASSIGNED_CONTEXT((#393))
GLOBAL_UNIT_ASSIGNED_CONTEXT((#395,#398,#396))
REPRESENTATION_CONTEXT('','3D')
);
#395=(
LENGTH_UNIT()
NAMED_UNIT(*)
SI_UNIT(.MILLI.,.METRE.)
);
#396=(
NAMED_UNIT(*)
SI_UNIT($,.STERADIAN.)
SOLID_ANGLE_UNIT()
);
#397=DIMENSIONAL_EXPONENTS(0.,0.,0.,0.,0.,0.,0.);
#398=(
CONVERSION_BASED_UNIT('degree',#400)
NAMED_UNIT(#397)
PLANE_ANGLE_UNIT()
);
#399=(
NAMED_UNIT(*)
PLANE_ANGLE_UNIT()
SI_UNIT($,.RADIAN.)
);
#400=PLANE_ANGLE_MEASURE_WITH_UNIT(PLANE_ANGLE_MEASURE(0.01745329252),#399);
#401=SHAPE_DEFINITION_REPRESENTATION(#402,#403);
#402=PRODUCT_DEFINITION_SHAPE('',$,#405);
#403=SHAPE_REPRESENTATION('',(#231),#394);
#404=PRODUCT_DEFINITION_CONTEXT('3D Mechanical Parts',#408,'design');
#405=PRODUCT_DEFINITION('200520-2','200520-2',#406,#404);
#406=PRODUCT_DEFINITION_FORMATION('',$,#410);
#407=APPLICATION_PROTOCOL_DEFINITION('international standard',
'automotive_design',2009,#408);
#408=APPLICATION_CONTEXT(
'Core Data for Automotive Mechanical Design Process');
#409=PRODUCT_CONTEXT('3D Mechanical Parts',#408,'mechanical');
#410=PRODUCT('200520-2','200520-2',$,(#409));
#411=PRESENTATION_STYLE_ASSIGNMENT((#412));
#412=SURFACE_STYLE_USAGE(.BOTH.,#413);
#413=SURFACE_SIDE_STYLE($,(#414));
#414=SURFACE_STYLE_FILL_AREA(#415);
#415=FILL_AREA_STYLE($,(#416));
#416=FILL_AREA_STYLE_COLOUR($,#417);
#417=COLOUR_RGB('',0.63921568627451,0.63921568627451,0.686274509803922);
ENDSEC;
END-ISO-10303-21;
