                                                                        S      1
,,,14H210000.stp.ipt,22HAutodesk Inventor 2014,7Hunknown,32,38,7,99,15,,G      1
1.,2,2HMM,1,0.08,15H20151020.095730,0.01,10000.,5Hzeman,,11,0,;         G      2
     406       1                       1                        00000000D      1
     406                       1       3                               0D      2
     186       2                                                00000000D      3
     186            -191       1       0                               0D      4
     514       3                                                00010000D      5
     514                       1       1                               0D      6
     124       4                                                00000000D      7
     124                       3       0                               0D      8
     124       7                                                00000000D      9
     124                       3       0                               0D     10
     124      10                                                00000000D     11
     124                       3       0                               0D     12
     124      13                                                00000000D     13
     124                       3       0                               0D     14
     100      16                                       7        00010000D     15
     100       0               2       0                               0D     16
     100      18                                       9        00010000D     17
     100       0               2       0                               0D     18
     100      20                                      11        00010000D     19
     100       0               2       0                               0D     20
     100      22                                      13        00010000D     21
     100       0               2       0                               0D     22
     192      24                                                00010000D     23
     192       0    -191       1       1                               0D     24
     192      25                                                00010000D     25
     192       0    -191       1       1                               0D     26
     510      26                                                00010000D     27
     510            -191       1       1                               0D     28
     510      27                                                00010000D     29
     510            -191       1       1                               0D     30
     510      28                                                00010000D     31
     510            -191       1       1                               0D     32
     510      29                                                00010000D     33
     510            -191       1       1                               0D     34
     510      30                                                00010000D     35
     510            -191       1       1                               0D     36
     510      31                                                00010000D     37
     510            -191       1       1                               0D     38
     510      32                                                00010000D     39
     510            -191       1       1                               0D     40
     510      33                                                00010000D     41
     510            -191       1       1                               0D     42
     510      34                                                00010000D     43
     510            -191       1       1                               0D     44
     510      35                                                00010000D     45
     510            -191       1       1                               0D     46
     508      36                                                00010000D     47
     508                       1       1                               0D     48
     508      37                                                00010000D     49
     508                       1       1                               0D     50
     508      38                                                00010000D     51
     508                       1       1                               0D     52
     508      39                                                00010000D     53
     508                       1       1                               0D     54
     508      40                                                00010000D     55
     508                       1       1                               0D     56
     508      41                                                00010000D     57
     508                       1       1                               0D     58
     508      42                                                00010000D     59
     508                       1       1                               0D     60
     508      43                                                00010000D     61
     508                       1       1                               0D     62
     508      44                                                00010000D     63
     508                       2       1                               0D     64
     508      46                                                00010000D     65
     508                       2       1                               0D     66
     110      48                                                00010000D     67
     110       0               1       0                               0D     68
     110      49                                                00010000D     69
     110       0               2       0                               0D     70
     110      51                                                00010000D     71
     110       0               1       0                               0D     72
     110      52                                                00010000D     73
     110       0               1       0                               0D     74
     110      53                                                00010000D     75
     110       0               1       0                               0D     76
     110      54                                                00010000D     77
     110       0               1       0                               0D     78
     110      55                                                00010000D     79
     110       0               1       0                               0D     80
     110      56                                                00010000D     81
     110       0               1       0                               0D     82
     110      57                                                00010000D     83
     110       0               1       0                               0D     84
     110      58                                                00010000D     85
     110       0               1       0                               0D     86
     110      59                                                00010000D     87
     110       0               1       0                               0D     88
     110      60                                                00010000D     89
     110       0               1       0                               0D     90
     110      61                                                00010000D     91
     110       0               1       0                               0D     92
     110      62                                                00010000D     93
     110       0               1       0                               0D     94
     110      63                                                00010000D     95
     110       0               1       0                               0D     96
     110      64                                                00010000D     97
     110       0               1       0                               0D     98
     110      65                                                00010000D     99
     110       0               1       0                               0D    100
     110      66                                                00010000D    101
     110       0               2       0                               0D    102
     110      68                                                00010000D    103
     110       0               2       0                               0D    104
     110      70                                                00010000D    105
     110       0               2       0                               0D    106
     190      72                                                00010000D    107
     190       0    -191       1       1                               0D    108
     190      73                                                00010000D    109
     190       0    -191       1       1                               0D    110
     190      74                                                00010000D    111
     190       0    -191       1       1                               0D    112
     190      75                                                00010000D    113
     190       0    -191       1       1                               0D    114
     190      76                                                00010000D    115
     190       0    -191       1       1                               0D    116
     190      77                                                00010000D    117
     190       0    -191       1       1                               0D    118
     190      78                                                00010000D    119
     190       0    -191       1       1                               0D    120
     190      79                                                00010000D    121
     190       0    -191       1       1                               0D    122
     123      80                                                00010200D    123
     123       0               1       0                               0D    124
     123      81                                                00010200D    125
     123       0               1       0                               0D    126
     123      82                                                00010200D    127
     123       0               1       0                               0D    128
     123      83                                                00010200D    129
     123       0               1       0                               0D    130
     123      84                                                00010200D    131
     123       0               1       0                               0D    132
     123      85                                                00010200D    133
     123       0               1       0                               0D    134
     123      86                                                00010200D    135
     123       0               1       0                               0D    136
     123      87                                                00010200D    137
     123       0               1       0                               0D    138
     123      88                                                00010200D    139
     123       0               1       0                               0D    140
     123      89                                                00010200D    141
     123       0               1       0                               0D    142
     123      90                                                00010200D    143
     123       0               1       0                               0D    144
     123      91                                                00010200D    145
     123       0               1       0                               0D    146
     123      92                                                00010200D    147
     123       0               1       0                               0D    148
     123      93                                                00010200D    149
     123       0               1       0                               0D    150
     123      94                                                00010200D    151
     123       0               1       0                               0D    152
     123      95                                                00010200D    153
     123       0               1       0                               0D    154
     123      96                                                00010200D    155
     123       0               1       0                               0D    156
     123      97                                                00010200D    157
     123       0               1       0                               0D    158
     123      98                                                00010200D    159
     123       0               1       0                               0D    160
     123      99                                                00010200D    161
     123       0               1       0                               0D    162
     116     100                                                00010000D    163
     116       0               1       0                               0D    164
     116     101                                                00010000D    165
     116       0               1       0                               0D    166
     116     102                                                00010000D    167
     116       0               1       0                               0D    168
     116     103                                                00010000D    169
     116       0               1       0                               0D    170
     116     104                                                00010000D    171
     116       0               1       0                               0D    172
     116     105                                                00010000D    173
     116       0               1       0                               0D    174
     116     106                                                00010000D    175
     116       0               1       0                               0D    176
     116     107                                                00010000D    177
     116       0               1       0                               0D    178
     116     108                                                00010000D    179
     116       0               1       0                               0D    180
     116     109                                                00010000D    181
     116       0               1       0                               0D    182
     502     110                                                00010000D    183
     502                       8       1                               0D    184
     504     118                                                00010001D    185
     504                       7       1                               0D    186
     406     125                                                00000000D    187
     406                       1      15                               0D    188
     314     126                                                00000200D    189
     314                       1       0                               0D    190
     314     127                                                00000200D    191
     314                       1       0                               0D    192
406,2,0,10H210000.stp;                                                 1P      1
186,5,1,0,0,1,187;                                                     3P      2
514,10,27,1,29,1,31,1,33,1,35,1,37,1,39,1,41,1,43,1,45,1;              5P      3
124,-0.93386513550039,-0.357625374794405,0.,11.9388888888889,          7P      4
-0.357625374794405,0.93386513550039,0.,7.15694444444447,-0.,-0.,       7P      5
-1.,100.;                                                              7P      6
124,-0.93386513550039,-0.357625374794405,0.,11.9388888888889,          9P      7
-0.357625374794405,0.93386513550039,0.,7.15694444444447,-0.,-0.,       9P      8
-1.,0.;                                                                9P      9
124,0.721496874900568,-0.692417691504711,0.,-11.9388888888888,        11P     10
-0.692417691504711,-0.721496874900568,-0.,7.15694444444439,0.,        11P     11
-0.,-1.,100.;                                                         11P     12
124,0.721496874900568,-0.692417691504711,0.,-11.9388888888888,        13P     13
-0.692417691504711,-0.721496874900568,-0.,7.15694444444439,0.,        13P     14
-0.,-1.,0.;                                                           13P     15
100,0.,0.,0.,18.439569879147,-7.77680425072886,20.0124066939012,      15P     16
-1.50990331349021D-014;                                               15P     17
100,0.,0.,0.,18.439569879147,-7.77680425072886,20.0124066939012,      17P     18
-1.50990331349021D-014;                                               17P     19
100,0.,0.,0.,18.4395698791469,-7.7768042507288,20.012406693901,       19P     20
1.4210854715202D-014;                                                 19P     21
100,0.,0.,0.,18.4395698791469,-7.7768042507288,20.012406693901,       21P     22
1.4210854715202D-014;                                                 21P     23
192,165,127,20.0124066939012,129;                                     23P     24
192,177,151,20.012406693901,153;                                      25P     25
510,107,1,1,47;                                                       27P     26
510,23,1,1,49;                                                        29P     27
510,109,1,1,51;                                                       31P     28
510,111,1,1,53;                                                       33P     29
510,113,1,1,55;                                                       35P     30
510,115,1,1,57;                                                       37P     31
510,117,1,1,59;                                                       39P     32
510,25,1,1,61;                                                        41P     33
510,119,1,1,63;                                                       43P     34
510,121,1,1,65;                                                       45P     35
508,4,0,185,1,1,0,0,185,2,0,0,0,185,3,0,0,0,185,4,1,0;                47P     36
508,4,0,185,5,1,0,0,185,6,0,0,0,185,7,0,0,0,185,2,1,0;                49P     37
508,4,0,185,8,1,0,0,185,9,0,0,0,185,10,0,0,0,185,6,1,0;               51P     38
508,4,0,185,11,1,0,0,185,12,0,0,0,185,13,0,0,0,185,9,1,0;             53P     39
508,4,0,185,14,1,0,0,185,15,0,0,0,185,16,0,0,0,185,12,1,0;            55P     40
508,4,0,185,17,1,0,0,185,18,0,0,0,185,19,0,0,0,185,15,1,0;            57P     41
508,4,0,185,20,1,0,0,185,21,0,0,0,185,22,0,0,0,185,18,1,0;            59P     42
508,4,0,185,23,1,0,0,185,4,0,0,0,185,24,0,0,0,185,21,1,0;             61P     43
508,8,0,185,14,0,0,0,185,11,0,0,0,185,8,0,0,0,185,5,0,0,0,185,1,      63P     44
0,0,0,185,23,0,0,0,185,20,0,0,0,185,17,0,0;                           63P     45
508,8,0,185,16,1,0,0,185,19,1,0,0,185,22,1,0,0,185,24,1,0,0,185,      65P     46
3,1,0,0,185,7,1,0,0,185,10,1,0,0,185,13,1,0;                          65P     47
110,2.5,-6.7,100.,-2.49999999999999,-6.70000000000001,100.;           67P     48
110,-2.49999999999999,-6.70000000000001,0.,-2.49999999999999,         69P     49
-6.70000000000001,100.;                                               69P     50
110,2.5,-6.7,0.,-2.49999999999999,-6.70000000000001,0.;               71P     51
110,2.5,-6.7,0.,2.5,-6.7,100.;                                        73P     52
110,-6.75,0.,0.,-6.75,0.,100.;                                        75P     53
110,-6.75,0.,100.,-3.90000000000001,0.,100.;                          77P     54
110,-3.90000000000001,0.,0.,-3.90000000000001,0.,100.;                79P     55
110,-6.75,0.,0.,-3.90000000000001,0.,0.;                              81P     56
110,-3.90000000000001,0.,100.,-3.90000000000001,0.5,100.;             83P     57
110,-3.90000000000001,0.5,0.,-3.90000000000001,0.5,100.;              85P     58
110,-3.90000000000001,0.,0.,-3.90000000000001,0.5,0.;                 87P     59
110,-3.90000000000001,0.5,100.,3.90000000000001,0.5,100.;             89P     60
110,3.90000000000001,0.5,0.,3.90000000000001,0.5,100.;                91P     61
110,-3.90000000000001,0.5,0.,3.90000000000001,0.5,0.;                 93P     62
110,3.90000000000001,0.5,100.,3.90000000000001,0.,100.;               95P     63
110,3.90000000000001,0.,0.,3.90000000000001,0.,100.;                  97P     64
110,3.90000000000001,0.5,0.,3.90000000000001,0.,0.;                   99P     65
110,3.90000000000001,0.,100.,6.74999999999999,                       101P     66
-1.24344978758018D-014,100.;                                         101P     67
110,6.74999999999999,-1.24344978758018D-014,0.,6.74999999999999,     103P     68
-1.24344978758018D-014,100.;                                         103P     69
110,3.90000000000001,0.,0.,6.74999999999999,                         105P     70
-1.24344978758018D-014,0.;                                           105P     71
190,163,123,125;                                                     107P     72
190,167,131,133;                                                     109P     73
190,169,135,137;                                                     111P     74
190,171,139,141;                                                     113P     75
190,173,143,145;                                                     115P     76
190,175,147,149;                                                     117P     77
190,179,155,157;                                                     119P     78
190,181,159,161;                                                     121P     79
123,8.88178419700127D-016,-1.,0.;                                    123P     80
123,0.,0.,-1.;                                                       125P     81
123,0.,0.,1.;                                                        127P     82
123,-0.93386513550039,-0.357625374794405,0.;                         129P     83
123,0.,1.,0.;                                                        131P     84
123,0.,0.,1.;                                                        133P     85
123,-1.,0.,0.;                                                       135P     86
123,0.,0.,1.;                                                        137P     87
123,0.,1.,0.;                                                        139P     88
123,0.,0.,1.;                                                        141P     89
123,1.,0.,0.;                                                        143P     90
123,0.,0.,-1.;                                                       145P     91
123,4.36298171080765D-015,1.,0.;                                     147P     92
123,0.,0.,1.;                                                        149P     93
123,0.,0.,1.;                                                        151P     94
123,0.721496874900568,-0.692417691504711,0.;                         153P     95
123,0.,0.,1.;                                                        155P     96
123,1.,0.,0.;                                                        157P     97
123,-0.,-0.,-1.;                                                     159P     98
123,1.,0.,0.;                                                        161P     99
116,2.5,-6.7,0.,0;                                                   163P    100
116,11.9388888888889,7.15694444444447,0.,0;                          165P    101
116,-6.75,0.,0.,0;                                                   167P    102
116,-3.90000000000001,0.,0.,0;                                       169P    103
116,-3.90000000000001,0.5,0.,0;                                      171P    104
116,3.90000000000001,0.5,0.,0;                                       173P    105
116,3.90000000000001,0.,0.,0;                                        175P    106
116,-11.9388888888888,7.15694444444439,0.,0;                         177P    107
116,-2.77555756156289D-015,-3.1,100.,0;                              179P    108
116,-2.77555756156289D-015,-3.1,0.,0;                                181P    109
502,16,2.5,-6.7,100.,-2.49999999999999,-6.70000000000001,100.,       183P    110
-2.49999999999999,-6.70000000000001,0.,2.5,-6.7,0.,-6.75,0.,         183P    111
100.,-6.75,0.,0.,-3.90000000000001,0.,100.,-3.90000000000001,0.,     183P    112
0.,-3.90000000000001,0.5,100.,-3.90000000000001,0.5,0.,              183P    113
3.90000000000001,0.5,100.,3.90000000000001,0.5,0.,                   183P    114
3.90000000000001,0.,100.,3.90000000000001,0.,0.,                     183P    115
6.74999999999999,-1.24344978758018D-014,100.,6.74999999999999,       183P    116
-1.24344978758018D-014,0.;                                           183P    117
504,24,67,183,1,183,2,69,183,3,183,2,71,183,4,183,3,73,183,4,        185P    118
183,1,15,183,2,183,5,75,183,6,183,5,17,183,3,183,6,77,183,5,183,     185P    119
7,79,183,8,183,7,81,183,6,183,8,83,183,7,183,9,85,183,10,183,9,      185P    120
87,183,8,183,10,89,183,9,183,11,91,183,12,183,11,93,183,10,183,      185P    121
12,95,183,11,183,13,97,183,14,183,13,99,183,12,183,14,101,183,       185P    122
13,183,15,103,183,16,183,15,105,183,14,183,16,19,183,15,183,1,       185P    123
21,183,16,183,4;                                                     185P    124
406,1,8HTěleso1;                                                    187P    125
314,74.9019607843137,74.9019607843137,74.9019607843137,;             189P    126
314,63.921568627451,63.921568627451,66.2745098039216,;               191P    127
S      1G      2D    192P    127                                        T      1
