                                                                        S      1
,,,14H210800.stp.ipt,22HAutodesk Inventor 2014,7Hunknown,32,38,7,99,15,,G      1
1.,2,2HMM,1,0.08,15H20151016.101509,0.01,10000.,5Hzeman,,11,0,;         G      2
     406       1                       1                        00000000D      1
     406                       1       3                               0D      2
     186       2                                                00000000D      3
     186            -157       1       0                               0D      4
     514       3                                                00010000D      5
     514                       1       1                               0D      6
     190       4                                                00010000D      7
     190       0    -157       1       1                               0D      8
     190       5                                                00010000D      9
     190       0    -157       1       1                               0D     10
     190       6                                                00010000D     11
     190       0    -157       1       1                               0D     12
     190       7                                                00010000D     13
     190       0    -157       1       1                               0D     14
     190       8                                                00010000D     15
     190       0    -157       1       1                               0D     16
     190       9                                                00010000D     17
     190       0    -157       1       1                               0D     18
     126      10                                                00010000D     19
     126       0               6       0                               0D     20
     126      16                                                00010000D     21
     126       0               6       0                               0D     22
     126      22                                                00010000D     23
     126       0               6       0                               0D     24
     126      28                                                00010000D     25
     126       0               6       0                               0D     26
     194      34                                                00010000D     27
     194       0    -157       1       1                               0D     28
     123      35                                                00010200D     29
     123       0               1       0                               0D     30
     123      36                                                00010200D     31
     123       0               1       0                               0D     32
     123      37                                                00010200D     33
     123       0               1       0                               0D     34
     123      38                                                00010200D     35
     123       0               1       0                               0D     36
     123      39                                                00010200D     37
     123       0               1       0                               0D     38
     123      40                                                00010200D     39
     123       0               1       0                               0D     40
     123      41                                                00010200D     41
     123       0               1       0                               0D     42
     123      42                                                00010200D     43
     123       0               1       0                               0D     44
     123      43                                                00010200D     45
     123       0               1       0                               0D     46
     123      44                                                00010200D     47
     123       0               1       0                               0D     48
     123      45                                                00010200D     49
     123       0               1       0                               0D     50
     123      46                                                00010200D     51
     123       0               1       0                               0D     52
     123      47                                                00010200D     53
     123       0               1       0                               0D     54
     123      48                                                00010200D     55
     123       0               1       0                               0D     56
     116      49                                                00010000D     57
     116       0               1       0                               0D     58
     116      50                                                00010000D     59
     116       0               1       0                               0D     60
     116      51                                                00010000D     61
     116       0               1       0                               0D     62
     116      52                                                00010000D     63
     116       0               1       0                               0D     64
     116      53                                                00010000D     65
     116       0               1       0                               0D     66
     116      54                                                00010000D     67
     116       0               1       0                               0D     68
     116      55                                                00010000D     69
     116       0               1       0                               0D     70
     510      56                                                00010000D     71
     510            -157       1       1                               0D     72
     510      57                                                00010000D     73
     510            -157       1       1                               0D     74
     510      58                                                00010000D     75
     510            -157       1       1                               0D     76
     510      59                                                00010000D     77
     510            -157       1       1                               0D     78
     510      60                                                00010000D     79
     510            -157       1       1                               0D     80
     510      61                                                00010000D     81
     510            -157       1       1                               0D     82
     510      62                                                00010000D     83
     510            -157       1       1                               0D     84
     510      63                                                00010000D     85
     510            -157       1       1                               0D     86
     508      64                                                00010000D     87
     508                       2       1                               0D     88
     508      66                                                00010000D     89
     508                       1       1                               0D     90
     508      67                                                00010000D     91
     508                       1       1                               0D     92
     508      68                                                00010000D     93
     508                       1       1                               0D     94
     508      69                                                00010000D     95
     508                       1       1                               0D     96
     508      70                                                00010000D     97
     508                       1       1                               0D     98
     508      71                                                00010000D     99
     508                       1       1                               0D    100
     508      72                                                00010000D    101
     508                       1       1                               0D    102
     508      73                                                00010000D    103
     508                       1       1                               0D    104
     508      74                                                00010000D    105
     508                       1       1                               0D    106
     508      75                                                00010000D    107
     508                       1       1                               0D    108
     124      76                                                00000000D    109
     124                       1       0                               0D    110
     124      77                                                00000000D    111
     124                       1       0                               0D    112
     124      78                                                00000000D    113
     124                       1       0                               0D    114
     124      79                                                00000000D    115
     124                       1       0                               0D    116
     100      80                                     109        00010000D    117
     100       0               2       0                               0D    118
     100      82                                     111        00010000D    119
     100       0               1       0                               0D    120
     100      83                                     113        00010000D    121
     100       0               1       0                               0D    122
     100      84                                     115        00010000D    123
     100       0               1       0                               0D    124
     120      85                                                00010000D    125
     120       0    -157       1       0                               0D    126
     110      86                                                00010000D    127
     110       0               1       0                               0D    128
     110      87                                                00010000D    129
     110       0               2       0                               0D    130
     110      89                                                00010000D    131
     110       0               2       0                               0D    132
     110      91                                                00010000D    133
     110       0               1       0                               0D    134
     110      92                                                00010000D    135
     110       0               1       0                               0D    136
     110      93                                                00010000D    137
     110       0               1       0                               0D    138
     110      94                                                00010000D    139
     110       0               1       0                               0D    140
     110      95                                                00010000D    141
     110       0               1       0                               0D    142
     110      96                                                00010000D    143
     110       0               1       0                               0D    144
     110      97                                                00010000D    145
     110       0               1       0                               0D    146
     110      98                                                00010000D    147
     110       0               1       0                               0D    148
     502      99                                                00010000D    149
     502                       5       1                               0D    150
     504     104                                                00010001D    151
     504                       5       1                               0D    152
     406     109                                                00000000D    153
     406                       1      15                               0D    154
     314     110                                                00000200D    155
     314                       1       0                               0D    156
     314     111                                                00000200D    157
     314                       1       0                               0D    158
406,2,0,10H210800.stp;                                                 1P      1
186,5,1,0,0,1,153;                                                     3P      2
514,8,71,1,73,1,75,1,77,1,79,1,81,1,83,1,85,1;                         5P      3
190,59,33,35;                                                          7P      4
190,61,37,39;                                                          9P      5
190,63,41,43;                                                         11P      6
190,65,45,47;                                                         13P      7
190,67,49,51;                                                         15P      8
190,69,53,55;                                                         17P      9
126,2,2,0,0,0,0,0.0587433032615019,0.0587433032615019,                19P     10
0.0587433032615019,1.53342502954415,1.53342502954415,                 19P     11
1.53342502954415,1.03553390593274,1.46446609406627,                   19P     12
1.03553390593472,1.60761184457488,6.5,6.5,6.20380592224986,6.5,       19P     13
-3.1890046159333D-011,1.60761184457488,6.5,-6.5,                      19P     14
0.0587433032615019,1.53342502954415,0.,0.,0.;                         19P     15
126,2,2,0,0,0,0,0.0587433032615019,0.0587433032615019,                21P     16
0.0587433032615019,1.53342502954415,1.53342502954415,                 21P     17
1.53342502954415,1.03553390593274,1.46446609406627,                   21P     18
1.03553390593472,1.60761184457488,-6.5,6.5,6.20380592224986,          21P     19
3.18911563823576D-011,6.5,1.60761184457488,6.5,6.5,                   21P     20
0.0587433032615019,1.53342502954415,0.,0.,0.;                         21P     21
126,2,2,0,0,0,0,0.0587433032615019,0.0587433032615019,                23P     22
0.0587433032615019,1.53342502954415,1.53342502954415,                 23P     23
1.53342502954415,1.03553390593274,1.46446609406627,                   23P     24
1.03553390593472,1.60761184457488,-6.5,-6.5,6.20380592224986,         23P     25
-6.5,3.1890046159333D-011,1.60761184457488,-6.5,6.5,                  23P     26
0.0587433032615019,1.53342502954415,0.,0.,0.;                         23P     27
126,2,2,0,0,0,0,0.0587433032615019,0.0587433032615019,                25P     28
0.0587433032615019,1.53342502954415,1.53342502954415,                 25P     29
1.53342502954415,1.03553390593274,1.46446609406627,                   25P     30
1.03553390593472,1.60761184457488,6.5,-6.5,6.20380592224986,          25P     31
-3.18867154902591D-011,-6.5,1.60761184457488,-6.5,-6.5,               25P     32
0.0587433032615019,1.53342502954415,0.,0.,0.;                         25P     33
194,57,29,7.275,45.,31;                                               27P     34
123,-1.,0.,0.;                                                        29P     35
123,0.,1.,0.;                                                         31P     36
123,0.,-1.,0.;                                                        33P     37
123,0.,0.,-1.;                                                        35P     38
123,0.,0.,1.;                                                         37P     39
123,1.,0.,0.;                                                         39P     40
123,0.,1.,0.;                                                         41P     41
123,0.,0.,1.;                                                         43P     42
123,0.,0.,-1.;                                                        45P     43
123,-1.,0.,0.;                                                        47P     44
123,1.,0.,0.;                                                         49P     45
123,0.,0.,-1.;                                                        51P     46
123,-1.,-0.,-0.;                                                      53P     47
123,0.,0.,-1.;                                                        55P     48
116,3.525,0.,0.,0;                                                    57P     49
116,0.,-6.5,-6.5,0;                                                   59P     50
116,0.,-6.5,6.5,0;                                                    61P     51
116,0.,6.5,6.5,0;                                                     63P     52
116,0.,6.5,-6.5,0;                                                    65P     53
116,6.,0.,6.81273219656346D-016,0;                                    67P     54
116,0.,0.,4.54182146437564D-016,0;                                    69P     55
510,125,1,1,87;                                                       71P     56
510,27,2,1,89,91;                                                     73P     57
510,7,1,1,93;                                                         75P     58
510,9,1,1,95;                                                         77P     59
510,11,1,1,97;                                                        79P     60
510,13,1,1,99;                                                        81P     61
510,15,2,1,101,103;                                                   83P     62
510,17,2,1,105,107;                                                   85P     63
508,5,0,151,1,0,0,0,151,2,1,0,0,151,3,0,0,0,151,4,0,0,0,151,2,0,      87P     64
0;                                                                    87P     65
508,4,0,151,5,0,0,0,151,6,0,0,0,151,7,0,0,0,151,8,0,0;                89P     66
508,1,0,151,9,0,0;                                                    91P     67
508,4,0,151,7,1,0,0,151,10,0,0,0,151,11,0,0,0,151,12,1,0;             93P     68
508,4,0,151,6,1,0,0,151,13,0,0,0,151,14,0,0,0,151,10,1,0;             95P     69
508,4,0,151,5,1,0,0,151,15,0,0,0,151,16,0,0,0,151,13,1,0;             97P     70
508,4,0,151,8,1,0,0,151,12,0,0,0,151,17,0,0,0,151,15,1,0;             99P     71
508,1,0,151,9,1,0;                                                   101P     72
508,2,0,151,3,1,0,0,151,4,1,0;                                       103P     73
508,4,0,151,14,1,0,0,151,16,1,0,0,151,17,1,0,0,151,11,1,0;           105P     74
508,1,0,151,1,1,0;                                                   107P     75
124,0.,-0.,1.,0.,0.,1.,-0.,0.,-1.,-0.,0.,0.;                         109P     76
124,0.,-0.,-1.,6.,0.,-1.,0.,0.,-1.,-0.,0.,0.;                        111P     77
124,0.,-0.,-1.,6.,0.,-1.,0.,0.,-1.,-0.,0.,0.;                        113P     78
124,0.,-0.,1.,6.,1.,0.,-0.,0.,0.,1.,0.,0.;                           115P     79
100,0.,0.,0.,-3.3235,-4.07011363696623D-016,-3.3235,                 117P     80
-4.07011363696623D-016;                                              117P     81
100,0.,0.,0.,3.3235,0.,-3.3235,4.07011363696623D-016;                119P     82
100,0.,0.,0.,-3.3235,4.07011363696623D-016,3.3235,0.;                121P     83
100,0.,0.,0.,4.8,0.,4.8,0.;                                          123P     84
120,127,129,0.,6.28318530717959;                                     125P     85
110,-13.4032782776762,0.,0.,-12.4032782776762,0.,0.;                 127P     86
110,0.,-4.07011363696623D-016,3.3235,6.,-4.07011363696623D-016,      129P     87
3.3235;                                                              129P     88
110,0.,-4.07011363696623D-016,3.3235,6.,-4.07011363696623D-016,      131P     89
3.3235;                                                              131P     90
110,0.,-6.5,6.5,1.60761184457488,-6.5,6.5;                           133P     91
110,0.,-6.5,-6.5,0.,-6.5,6.5;                                        135P     92
110,0.,-6.5,-6.5,1.60761184457488,-6.5,-6.5;                         137P     93
110,0.,6.5,6.5,1.60761184457488,6.5,6.5;                             139P     94
110,0.,-6.5,6.5,0.,6.5,6.5;                                          141P     95
110,0.,6.5,-6.5,1.60761184457488,6.5,-6.5;                           143P     96
110,0.,6.5,6.5,0.,6.5,-6.5;                                          145P     97
110,0.,6.5,-6.5,0.,-6.5,-6.5;                                        147P     98
502,12,0.,-4.07011363696623D-016,3.3235,6.,                          149P     99
-4.07011363696623D-016,3.3235,6.,0.,-3.3235,1.60761184457488,        149P    100
6.5,6.5,1.60761184457488,6.5,-6.5,1.60761184457488,-6.5,6.5,         149P    101
1.60761184457488,-6.5,-6.5,6.,4.8,0.,0.,-6.5,6.5,0.,-6.5,-6.5,       149P    102
0.,6.5,6.5,0.,6.5,-6.5;                                              149P    103
504,17,117,149,1,149,1,131,149,1,149,2,119,149,3,149,2,121,149,      151P    104
2,149,3,19,149,4,149,5,21,149,6,149,4,23,149,7,149,6,25,149,5,       151P    105
149,7,123,149,8,149,8,133,149,9,149,6,135,149,10,149,9,137,149,      151P    106
10,149,7,139,149,11,149,4,141,149,9,149,11,143,149,12,149,5,145,     151P    107
149,11,149,12,147,149,12,149,10;                                     151P    108
406,1,6HSolid1;                                                      153P    109
314,74.9019607843137,74.9019607843137,74.9019607843137,;             155P    110
314,63.921568627451,63.921568627451,68.6274509803922,;               157P    111
S      1G      2D    158P    111                                        T      1
