ISO-10303-21;
HEADER;
/* Generated by software containing ST-Developer
 * from STEP Tools, Inc. (www.steptools.com) 
 */

FILE_DESCRIPTION(
/* description */ ('Fixa\X2\010D\X0\n\X\ED \X\FAheln\X\EDk 28x28'),
/* implementation_level */ '2;1');

FILE_NAME(
/* name */ 
'D:\\VaultPracovni\\Zak\X\E1zky\\2015\\M belt\\1578-35_DP50_1300x150_v
400-1150\\302828.stp',
/* time_stamp */ '2015-06-26T10:49:14+02:00',
/* author */ ('veronikaf'),
/* organization */ (''),
/* preprocessor_version */ 'ST-DEVELOPER v15.2',
/* originating_system */ 'Autodesk Inventor 2014',
/* authorisation */ '');

FILE_SCHEMA (('AUTOMOTIVE_DESIGN { 1 0 10303 214 3 1 1 }'));
ENDSEC;

DATA;
#10=MECHANICAL_DESIGN_GEOMETRIC_PRESENTATION_REPRESENTATION('',(#13),#613);
#11=SHAPE_REPRESENTATION_RELATIONSHIP('SRR','None',#622,#12);
#12=ADVANCED_BREP_SHAPE_REPRESENTATION($,(#377),#612);
#13=STYLED_ITEM('',(#631),#377);
#14=FACE_BOUND('',#63,.T.);
#15=FACE_BOUND('',#64,.T.);
#16=FACE_BOUND('',#66,.T.);
#17=FACE_BOUND('',#67,.T.);
#18=FACE_BOUND('',#72,.T.);
#19=FACE_BOUND('',#73,.T.);
#20=FACE_BOUND('',#74,.T.);
#21=FACE_BOUND('',#75,.T.);
#22=PLANE('',#382);
#23=PLANE('',#386);
#24=PLANE('',#390);
#25=PLANE('',#394);
#26=PLANE('',#395);
#27=PLANE('',#396);
#28=PLANE('',#397);
#29=PLANE('',#398);
#30=PLANE('',#399);
#31=PLANE('',#400);
#32=PLANE('',#401);
#33=PLANE('',#402);
#34=PLANE('',#403);
#35=PLANE('',#404);
#36=PLANE('',#405);
#37=PLANE('',#406);
#38=FACE_OUTER_BOUND('',#54,.T.);
#39=FACE_OUTER_BOUND('',#55,.T.);
#40=FACE_OUTER_BOUND('',#56,.T.);
#41=FACE_OUTER_BOUND('',#57,.T.);
#42=FACE_OUTER_BOUND('',#58,.T.);
#43=FACE_OUTER_BOUND('',#59,.T.);
#44=FACE_OUTER_BOUND('',#60,.T.);
#45=FACE_OUTER_BOUND('',#61,.T.);
#46=FACE_OUTER_BOUND('',#62,.T.);
#47=FACE_OUTER_BOUND('',#65,.T.);
#48=FACE_OUTER_BOUND('',#68,.T.);
#49=FACE_OUTER_BOUND('',#69,.T.);
#50=FACE_OUTER_BOUND('',#70,.T.);
#51=FACE_OUTER_BOUND('',#71,.T.);
#52=FACE_OUTER_BOUND('',#76,.T.);
#53=FACE_OUTER_BOUND('',#77,.T.);
#54=EDGE_LOOP('',(#252,#253,#254,#255));
#55=EDGE_LOOP('',(#256,#257,#258,#259));
#56=EDGE_LOOP('',(#260,#261,#262,#263));
#57=EDGE_LOOP('',(#264,#265,#266,#267));
#58=EDGE_LOOP('',(#268,#269,#270,#271));
#59=EDGE_LOOP('',(#272,#273,#274,#275));
#60=EDGE_LOOP('',(#276,#277,#278,#279));
#61=EDGE_LOOP('',(#280,#281,#282,#283));
#62=EDGE_LOOP('',(#284,#285,#286));
#63=EDGE_LOOP('',(#287,#288,#289,#290));
#64=EDGE_LOOP('',(#291,#292,#293,#294));
#65=EDGE_LOOP('',(#295,#296,#297));
#66=EDGE_LOOP('',(#298,#299,#300,#301));
#67=EDGE_LOOP('',(#302,#303,#304,#305));
#68=EDGE_LOOP('',(#306,#307,#308,#309));
#69=EDGE_LOOP('',(#310,#311,#312,#313,#314,#315));
#70=EDGE_LOOP('',(#316,#317,#318,#319));
#71=EDGE_LOOP('',(#320,#321,#322,#323,#324,#325));
#72=EDGE_LOOP('',(#326,#327,#328,#329));
#73=EDGE_LOOP('',(#330,#331,#332,#333));
#74=EDGE_LOOP('',(#334,#335,#336,#337));
#75=EDGE_LOOP('',(#338,#339,#340,#341));
#76=EDGE_LOOP('',(#342,#343,#344,#345,#346));
#77=EDGE_LOOP('',(#347,#348,#349,#350,#351));
#78=LINE('',#513,#120);
#79=LINE('',#516,#121);
#80=LINE('',#519,#122);
#81=LINE('',#521,#123);
#82=LINE('',#522,#124);
#83=LINE('',#527,#125);
#84=LINE('',#530,#126);
#85=LINE('',#531,#127);
#86=LINE('',#537,#128);
#87=LINE('',#540,#129);
#88=LINE('',#543,#130);
#89=LINE('',#545,#131);
#90=LINE('',#546,#132);
#91=LINE('',#552,#133);
#92=LINE('',#554,#134);
#93=LINE('',#555,#135);
#94=LINE('',#559,#136);
#95=LINE('',#561,#137);
#96=LINE('',#562,#138);
#97=LINE('',#565,#139);
#98=LINE('',#567,#140);
#99=LINE('',#568,#141);
#100=LINE('',#571,#142);
#101=LINE('',#572,#143);
#102=LINE('',#574,#144);
#103=LINE('',#577,#145);
#104=LINE('',#579,#146);
#105=LINE('',#580,#147);
#106=LINE('',#584,#148);
#107=LINE('',#585,#149);
#108=LINE('',#587,#150);
#109=LINE('',#588,#151);
#110=LINE('',#591,#152);
#111=LINE('',#592,#153);
#112=LINE('',#595,#154);
#113=LINE('',#597,#155);
#114=LINE('',#598,#156);
#115=LINE('',#601,#157);
#116=LINE('',#603,#158);
#117=LINE('',#604,#159);
#118=LINE('',#606,#160);
#119=LINE('',#607,#161);
#120=VECTOR('',#413,5.);
#121=VECTOR('',#416,5.);
#122=VECTOR('',#419,5.);
#123=VECTOR('',#420,5.);
#124=VECTOR('',#421,5.);
#125=VECTOR('',#426,5.);
#126=VECTOR('',#431,5.);
#127=VECTOR('',#432,5.);
#128=VECTOR('',#437,5.);
#129=VECTOR('',#440,5.);
#130=VECTOR('',#443,5.);
#131=VECTOR('',#444,5.);
#132=VECTOR('',#445,5.);
#133=VECTOR('',#452,5.);
#134=VECTOR('',#455,5.);
#135=VECTOR('',#456,5.);
#136=VECTOR('',#459,32.5269119345812);
#137=VECTOR('',#460,23.);
#138=VECTOR('',#461,23.);
#139=VECTOR('',#464,22.);
#140=VECTOR('',#465,23.);
#141=VECTOR('',#466,22.);
#142=VECTOR('',#469,32.5269119345812);
#143=VECTOR('',#470,23.);
#144=VECTOR('',#473,22.);
#145=VECTOR('',#476,3.);
#146=VECTOR('',#477,32.5269119345812);
#147=VECTOR('',#478,3.);
#148=VECTOR('',#481,4.99999999999998);
#149=VECTOR('',#482,3.);
#150=VECTOR('',#483,4.99999999999998);
#151=VECTOR('',#484,28.);
#152=VECTOR('',#487,32.5269119345812);
#153=VECTOR('',#488,3.00000000000001);
#154=VECTOR('',#491,5.);
#155=VECTOR('',#492,28.);
#156=VECTOR('',#493,5.);
#157=VECTOR('',#496,28.);
#158=VECTOR('',#497,28.);
#159=VECTOR('',#498,28.);
#160=VECTOR('',#501,28.);
#161=VECTOR('',#502,28.);
#162=CIRCLE('',#380,3.2);
#163=CIRCLE('',#381,3.2);
#164=CIRCLE('',#384,3.2);
#165=CIRCLE('',#385,3.2);
#166=CIRCLE('',#388,3.2);
#167=CIRCLE('',#389,3.2);
#168=CIRCLE('',#392,3.2);
#169=CIRCLE('',#393,3.2);
#170=VERTEX_POINT('',#509);
#171=VERTEX_POINT('',#510);
#172=VERTEX_POINT('',#512);
#173=VERTEX_POINT('',#514);
#174=VERTEX_POINT('',#518);
#175=VERTEX_POINT('',#520);
#176=VERTEX_POINT('',#524);
#177=VERTEX_POINT('',#526);
#178=VERTEX_POINT('',#533);
#179=VERTEX_POINT('',#534);
#180=VERTEX_POINT('',#536);
#181=VERTEX_POINT('',#538);
#182=VERTEX_POINT('',#542);
#183=VERTEX_POINT('',#544);
#184=VERTEX_POINT('',#548);
#185=VERTEX_POINT('',#550);
#186=VERTEX_POINT('',#557);
#187=VERTEX_POINT('',#558);
#188=VERTEX_POINT('',#560);
#189=VERTEX_POINT('',#564);
#190=VERTEX_POINT('',#566);
#191=VERTEX_POINT('',#570);
#192=VERTEX_POINT('',#576);
#193=VERTEX_POINT('',#578);
#194=VERTEX_POINT('',#582);
#195=VERTEX_POINT('',#583);
#196=VERTEX_POINT('',#586);
#197=VERTEX_POINT('',#590);
#198=VERTEX_POINT('',#594);
#199=VERTEX_POINT('',#596);
#200=VERTEX_POINT('',#600);
#201=VERTEX_POINT('',#602);
#202=EDGE_CURVE('',#170,#171,#162,.T.);
#203=EDGE_CURVE('',#172,#170,#78,.T.);
#204=EDGE_CURVE('',#173,#172,#163,.T.);
#205=EDGE_CURVE('',#173,#171,#79,.T.);
#206=EDGE_CURVE('',#174,#170,#80,.T.);
#207=EDGE_CURVE('',#175,#174,#81,.T.);
#208=EDGE_CURVE('',#172,#175,#82,.T.);
#209=EDGE_CURVE('',#176,#174,#164,.T.);
#210=EDGE_CURVE('',#177,#176,#83,.T.);
#211=EDGE_CURVE('',#175,#177,#165,.T.);
#212=EDGE_CURVE('',#171,#176,#84,.T.);
#213=EDGE_CURVE('',#177,#173,#85,.T.);
#214=EDGE_CURVE('',#178,#179,#166,.T.);
#215=EDGE_CURVE('',#180,#178,#86,.T.);
#216=EDGE_CURVE('',#181,#180,#167,.T.);
#217=EDGE_CURVE('',#181,#179,#87,.T.);
#218=EDGE_CURVE('',#179,#182,#88,.T.);
#219=EDGE_CURVE('',#183,#181,#89,.T.);
#220=EDGE_CURVE('',#183,#182,#90,.T.);
#221=EDGE_CURVE('',#182,#184,#168,.T.);
#222=EDGE_CURVE('',#185,#183,#169,.T.);
#223=EDGE_CURVE('',#185,#184,#91,.T.);
#224=EDGE_CURVE('',#184,#178,#92,.T.);
#225=EDGE_CURVE('',#180,#185,#93,.T.);
#226=EDGE_CURVE('',#186,#187,#94,.T.);
#227=EDGE_CURVE('',#186,#188,#95,.T.);
#228=EDGE_CURVE('',#187,#188,#96,.T.);
#229=EDGE_CURVE('',#188,#189,#97,.T.);
#230=EDGE_CURVE('',#190,#189,#98,.T.);
#231=EDGE_CURVE('',#187,#190,#99,.T.);
#232=EDGE_CURVE('',#190,#191,#100,.T.);
#233=EDGE_CURVE('',#189,#191,#101,.T.);
#234=EDGE_CURVE('',#186,#191,#102,.T.);
#235=EDGE_CURVE('',#192,#187,#103,.T.);
#236=EDGE_CURVE('',#193,#192,#104,.T.);
#237=EDGE_CURVE('',#193,#186,#105,.T.);
#238=EDGE_CURVE('',#194,#195,#106,.T.);
#239=EDGE_CURVE('',#191,#195,#107,.T.);
#240=EDGE_CURVE('',#196,#193,#108,.T.);
#241=EDGE_CURVE('',#196,#194,#109,.T.);
#242=EDGE_CURVE('',#195,#197,#110,.T.);
#243=EDGE_CURVE('',#190,#197,#111,.T.);
#244=EDGE_CURVE('',#197,#198,#112,.T.);
#245=EDGE_CURVE('',#199,#198,#113,.T.);
#246=EDGE_CURVE('',#192,#199,#114,.T.);
#247=EDGE_CURVE('',#198,#200,#115,.T.);
#248=EDGE_CURVE('',#201,#200,#116,.T.);
#249=EDGE_CURVE('',#199,#201,#117,.T.);
#250=EDGE_CURVE('',#200,#194,#118,.T.);
#251=EDGE_CURVE('',#201,#196,#119,.T.);
#252=ORIENTED_EDGE('',*,*,#202,.F.);
#253=ORIENTED_EDGE('',*,*,#203,.F.);
#254=ORIENTED_EDGE('',*,*,#204,.F.);
#255=ORIENTED_EDGE('',*,*,#205,.T.);
#256=ORIENTED_EDGE('',*,*,#206,.F.);
#257=ORIENTED_EDGE('',*,*,#207,.F.);
#258=ORIENTED_EDGE('',*,*,#208,.F.);
#259=ORIENTED_EDGE('',*,*,#203,.T.);
#260=ORIENTED_EDGE('',*,*,#209,.F.);
#261=ORIENTED_EDGE('',*,*,#210,.F.);
#262=ORIENTED_EDGE('',*,*,#211,.F.);
#263=ORIENTED_EDGE('',*,*,#207,.T.);
#264=ORIENTED_EDGE('',*,*,#212,.F.);
#265=ORIENTED_EDGE('',*,*,#205,.F.);
#266=ORIENTED_EDGE('',*,*,#213,.F.);
#267=ORIENTED_EDGE('',*,*,#210,.T.);
#268=ORIENTED_EDGE('',*,*,#214,.F.);
#269=ORIENTED_EDGE('',*,*,#215,.F.);
#270=ORIENTED_EDGE('',*,*,#216,.F.);
#271=ORIENTED_EDGE('',*,*,#217,.T.);
#272=ORIENTED_EDGE('',*,*,#218,.F.);
#273=ORIENTED_EDGE('',*,*,#217,.F.);
#274=ORIENTED_EDGE('',*,*,#219,.F.);
#275=ORIENTED_EDGE('',*,*,#220,.T.);
#276=ORIENTED_EDGE('',*,*,#221,.F.);
#277=ORIENTED_EDGE('',*,*,#220,.F.);
#278=ORIENTED_EDGE('',*,*,#222,.F.);
#279=ORIENTED_EDGE('',*,*,#223,.T.);
#280=ORIENTED_EDGE('',*,*,#224,.F.);
#281=ORIENTED_EDGE('',*,*,#223,.F.);
#282=ORIENTED_EDGE('',*,*,#225,.F.);
#283=ORIENTED_EDGE('',*,*,#215,.T.);
#284=ORIENTED_EDGE('',*,*,#226,.F.);
#285=ORIENTED_EDGE('',*,*,#227,.T.);
#286=ORIENTED_EDGE('',*,*,#228,.F.);
#287=ORIENTED_EDGE('',*,*,#221,.T.);
#288=ORIENTED_EDGE('',*,*,#224,.T.);
#289=ORIENTED_EDGE('',*,*,#214,.T.);
#290=ORIENTED_EDGE('',*,*,#218,.T.);
#291=ORIENTED_EDGE('',*,*,#229,.T.);
#292=ORIENTED_EDGE('',*,*,#230,.F.);
#293=ORIENTED_EDGE('',*,*,#231,.F.);
#294=ORIENTED_EDGE('',*,*,#228,.T.);
#295=ORIENTED_EDGE('',*,*,#232,.F.);
#296=ORIENTED_EDGE('',*,*,#230,.T.);
#297=ORIENTED_EDGE('',*,*,#233,.T.);
#298=ORIENTED_EDGE('',*,*,#202,.T.);
#299=ORIENTED_EDGE('',*,*,#212,.T.);
#300=ORIENTED_EDGE('',*,*,#209,.T.);
#301=ORIENTED_EDGE('',*,*,#206,.T.);
#302=ORIENTED_EDGE('',*,*,#227,.F.);
#303=ORIENTED_EDGE('',*,*,#234,.T.);
#304=ORIENTED_EDGE('',*,*,#233,.F.);
#305=ORIENTED_EDGE('',*,*,#229,.F.);
#306=ORIENTED_EDGE('',*,*,#226,.T.);
#307=ORIENTED_EDGE('',*,*,#235,.F.);
#308=ORIENTED_EDGE('',*,*,#236,.F.);
#309=ORIENTED_EDGE('',*,*,#237,.T.);
#310=ORIENTED_EDGE('',*,*,#238,.T.);
#311=ORIENTED_EDGE('',*,*,#239,.F.);
#312=ORIENTED_EDGE('',*,*,#234,.F.);
#313=ORIENTED_EDGE('',*,*,#237,.F.);
#314=ORIENTED_EDGE('',*,*,#240,.F.);
#315=ORIENTED_EDGE('',*,*,#241,.T.);
#316=ORIENTED_EDGE('',*,*,#232,.T.);
#317=ORIENTED_EDGE('',*,*,#239,.T.);
#318=ORIENTED_EDGE('',*,*,#242,.T.);
#319=ORIENTED_EDGE('',*,*,#243,.F.);
#320=ORIENTED_EDGE('',*,*,#244,.T.);
#321=ORIENTED_EDGE('',*,*,#245,.F.);
#322=ORIENTED_EDGE('',*,*,#246,.F.);
#323=ORIENTED_EDGE('',*,*,#235,.T.);
#324=ORIENTED_EDGE('',*,*,#231,.T.);
#325=ORIENTED_EDGE('',*,*,#243,.T.);
#326=ORIENTED_EDGE('',*,*,#222,.T.);
#327=ORIENTED_EDGE('',*,*,#219,.T.);
#328=ORIENTED_EDGE('',*,*,#216,.T.);
#329=ORIENTED_EDGE('',*,*,#225,.T.);
#330=ORIENTED_EDGE('',*,*,#247,.T.);
#331=ORIENTED_EDGE('',*,*,#248,.F.);
#332=ORIENTED_EDGE('',*,*,#249,.F.);
#333=ORIENTED_EDGE('',*,*,#245,.T.);
#334=ORIENTED_EDGE('',*,*,#204,.T.);
#335=ORIENTED_EDGE('',*,*,#208,.T.);
#336=ORIENTED_EDGE('',*,*,#211,.T.);
#337=ORIENTED_EDGE('',*,*,#213,.T.);
#338=ORIENTED_EDGE('',*,*,#250,.T.);
#339=ORIENTED_EDGE('',*,*,#241,.F.);
#340=ORIENTED_EDGE('',*,*,#251,.F.);
#341=ORIENTED_EDGE('',*,*,#248,.T.);
#342=ORIENTED_EDGE('',*,*,#238,.F.);
#343=ORIENTED_EDGE('',*,*,#250,.F.);
#344=ORIENTED_EDGE('',*,*,#247,.F.);
#345=ORIENTED_EDGE('',*,*,#244,.F.);
#346=ORIENTED_EDGE('',*,*,#242,.F.);
#347=ORIENTED_EDGE('',*,*,#251,.T.);
#348=ORIENTED_EDGE('',*,*,#240,.T.);
#349=ORIENTED_EDGE('',*,*,#236,.T.);
#350=ORIENTED_EDGE('',*,*,#246,.T.);
#351=ORIENTED_EDGE('',*,*,#249,.T.);
#352=CYLINDRICAL_SURFACE('',#379,3.2);
#353=CYLINDRICAL_SURFACE('',#383,3.2);
#354=CYLINDRICAL_SURFACE('',#387,3.2);
#355=CYLINDRICAL_SURFACE('',#391,3.2);
#356=ADVANCED_FACE('',(#38),#352,.F.);
#357=ADVANCED_FACE('',(#39),#22,.T.);
#358=ADVANCED_FACE('',(#40),#353,.F.);
#359=ADVANCED_FACE('',(#41),#23,.T.);
#360=ADVANCED_FACE('',(#42),#354,.F.);
#361=ADVANCED_FACE('',(#43),#24,.F.);
#362=ADVANCED_FACE('',(#44),#355,.F.);
#363=ADVANCED_FACE('',(#45),#25,.F.);
#364=ADVANCED_FACE('',(#46),#26,.F.);
#365=ADVANCED_FACE('',(#14,#15),#27,.F.);
#366=ADVANCED_FACE('',(#47),#28,.F.);
#367=ADVANCED_FACE('',(#16,#17),#29,.T.);
#368=ADVANCED_FACE('',(#48),#30,.T.);
#369=ADVANCED_FACE('',(#49),#31,.T.);
#370=ADVANCED_FACE('',(#50),#32,.T.);
#371=ADVANCED_FACE('',(#51),#33,.T.);
#372=ADVANCED_FACE('',(#18,#19),#34,.T.);
#373=ADVANCED_FACE('',(#20,#21),#35,.T.);
#374=ADVANCED_FACE('',(#52),#36,.T.);
#375=ADVANCED_FACE('',(#53),#37,.F.);
#376=CLOSED_SHELL('',(#356,#357,#358,#359,#360,#361,#362,#363,#364,#365,
#366,#367,#368,#369,#370,#371,#372,#373,#374,#375));
#377=MANIFOLD_SOLID_BREP('T\X2\011B\X0\leso1',#376);
#378=AXIS2_PLACEMENT_3D('placement',#507,#407,#408);
#379=AXIS2_PLACEMENT_3D('',#508,#409,#410);
#380=AXIS2_PLACEMENT_3D('',#511,#411,#412);
#381=AXIS2_PLACEMENT_3D('',#515,#414,#415);
#382=AXIS2_PLACEMENT_3D('',#517,#417,#418);
#383=AXIS2_PLACEMENT_3D('',#523,#422,#423);
#384=AXIS2_PLACEMENT_3D('',#525,#424,#425);
#385=AXIS2_PLACEMENT_3D('',#528,#427,#428);
#386=AXIS2_PLACEMENT_3D('',#529,#429,#430);
#387=AXIS2_PLACEMENT_3D('',#532,#433,#434);
#388=AXIS2_PLACEMENT_3D('',#535,#435,#436);
#389=AXIS2_PLACEMENT_3D('',#539,#438,#439);
#390=AXIS2_PLACEMENT_3D('',#541,#441,#442);
#391=AXIS2_PLACEMENT_3D('',#547,#446,#447);
#392=AXIS2_PLACEMENT_3D('',#549,#448,#449);
#393=AXIS2_PLACEMENT_3D('',#551,#450,#451);
#394=AXIS2_PLACEMENT_3D('',#553,#453,#454);
#395=AXIS2_PLACEMENT_3D('',#556,#457,#458);
#396=AXIS2_PLACEMENT_3D('',#563,#462,#463);
#397=AXIS2_PLACEMENT_3D('',#569,#467,#468);
#398=AXIS2_PLACEMENT_3D('',#573,#471,#472);
#399=AXIS2_PLACEMENT_3D('',#575,#474,#475);
#400=AXIS2_PLACEMENT_3D('',#581,#479,#480);
#401=AXIS2_PLACEMENT_3D('',#589,#485,#486);
#402=AXIS2_PLACEMENT_3D('',#593,#489,#490);
#403=AXIS2_PLACEMENT_3D('',#599,#494,#495);
#404=AXIS2_PLACEMENT_3D('',#605,#499,#500);
#405=AXIS2_PLACEMENT_3D('',#608,#503,#504);
#406=AXIS2_PLACEMENT_3D('',#609,#505,#506);
#407=DIRECTION('axis',(0.,0.,1.));
#408=DIRECTION('refdir',(1.,0.,0.));
#409=DIRECTION('center_axis',(-1.,-6.34413156928661E-017,0.));
#410=DIRECTION('ref_axis',(0.,0.,1.));
#411=DIRECTION('center_axis',(-1.,0.,0.));
#412=DIRECTION('ref_axis',(0.,0.,1.));
#413=DIRECTION('',(1.,6.34413156928661E-017,0.));
#414=DIRECTION('center_axis',(1.,3.07840480892132E-034,0.));
#415=DIRECTION('ref_axis',(0.,0.,1.));
#416=DIRECTION('',(1.,6.34413156928661E-017,0.));
#417=DIRECTION('center_axis',(5.63472075157866E-032,-8.88178419700125E-016,
-1.));
#418=DIRECTION('ref_axis',(-2.22044604925031E-016,1.,-1.06581410364015E-015));
#419=DIRECTION('',(0.,1.,-8.88178419700125E-016));
#420=DIRECTION('',(1.,6.34413156928661E-017,0.));
#421=DIRECTION('',(3.07840480892132E-034,-1.,8.88178419700125E-016));
#422=DIRECTION('center_axis',(-1.,-6.34413156928661E-017,0.));
#423=DIRECTION('ref_axis',(0.,0.,-1.));
#424=DIRECTION('center_axis',(-1.,0.,0.));
#425=DIRECTION('ref_axis',(0.,0.,-1.));
#426=DIRECTION('',(1.,6.34413156928661E-017,0.));
#427=DIRECTION('center_axis',(1.,3.07840480892132E-034,0.));
#428=DIRECTION('ref_axis',(0.,0.,-1.));
#429=DIRECTION('center_axis',(-2.81736037578933E-032,4.44089209850063E-016,
1.));
#430=DIRECTION('ref_axis',(2.22044604925031E-016,-1.,5.32907051820075E-016));
#431=DIRECTION('',(0.,-1.,4.44089209850063E-016));
#432=DIRECTION('',(-3.07840480892132E-034,1.,-4.44089209850063E-016));
#433=DIRECTION('center_axis',(-1.58603289232165E-016,1.,0.));
#434=DIRECTION('ref_axis',(0.,0.,1.));
#435=DIRECTION('center_axis',(0.,-1.,0.));
#436=DIRECTION('ref_axis',(0.,0.,1.));
#437=DIRECTION('',(-1.58603289232165E-016,1.,0.));
#438=DIRECTION('center_axis',(-1.83697019872103E-016,1.,0.));
#439=DIRECTION('ref_axis',(0.,0.,1.));
#440=DIRECTION('',(-1.58603289232165E-016,1.,0.));
#441=DIRECTION('center_axis',(8.88178419700125E-016,1.40868018789466E-031,
1.));
#442=DIRECTION('ref_axis',(1.,0.,-1.06581410364015E-015));
#443=DIRECTION('',(-1.,0.,8.88178419700125E-016));
#444=DIRECTION('',(1.,1.83697019872103E-016,-8.88178419700125E-016));
#445=DIRECTION('',(-1.58603289232165E-016,1.,0.));
#446=DIRECTION('center_axis',(-1.58603289232165E-016,1.,0.));
#447=DIRECTION('ref_axis',(0.,0.,-1.));
#448=DIRECTION('center_axis',(0.,-1.,0.));
#449=DIRECTION('ref_axis',(0.,0.,-1.));
#450=DIRECTION('center_axis',(-1.83697019872103E-016,1.,0.));
#451=DIRECTION('ref_axis',(0.,0.,-1.));
#452=DIRECTION('',(-1.58603289232165E-016,1.,0.));
#453=DIRECTION('center_axis',(-4.44089209850063E-016,-7.04340093947332E-032,
-1.));
#454=DIRECTION('ref_axis',(-1.,0.,5.32907051820075E-016));
#455=DIRECTION('',(1.,0.,-4.44089209850063E-016));
#456=DIRECTION('',(-1.,-1.83697019872103E-016,4.44089209850063E-016));
#457=DIRECTION('center_axis',(0.,1.93082265152201E-016,-1.));
#458=DIRECTION('ref_axis',(-1.,0.,0.));
#459=DIRECTION('',(0.707106781186548,-0.707106781186547,-1.3652977901598E-016));
#460=DIRECTION('',(0.,-1.,-1.93082265152201E-016));
#461=DIRECTION('',(-1.,0.,0.));
#462=DIRECTION('center_axis',(0.,-1.,0.));
#463=DIRECTION('ref_axis',(0.,0.,-1.));
#464=DIRECTION('',(0.,0.,1.));
#465=DIRECTION('',(-1.,0.,0.));
#466=DIRECTION('',(0.,0.,1.));
#467=DIRECTION('center_axis',(0.,-3.86164530304402E-016,1.));
#468=DIRECTION('ref_axis',(1.,0.,0.));
#469=DIRECTION('',(-0.707106781186548,0.707106781186547,2.73059558031961E-016));
#470=DIRECTION('',(0.,1.,3.86164530304402E-016));
#471=DIRECTION('center_axis',(1.,0.,0.));
#472=DIRECTION('ref_axis',(0.,0.,-1.));
#473=DIRECTION('',(0.,0.,1.));
#474=DIRECTION('center_axis',(0.707106781186547,0.707106781186548,0.));
#475=DIRECTION('ref_axis',(0.,0.,-1.));
#476=DIRECTION('',(0.,0.,1.));
#477=DIRECTION('',(0.707106781186548,-0.707106781186547,0.));
#478=DIRECTION('',(0.,0.,1.));
#479=DIRECTION('center_axis',(0.,1.,0.));
#480=DIRECTION('ref_axis',(0.,0.,1.));
#481=DIRECTION('',(1.,0.,0.));
#482=DIRECTION('',(0.,0.,1.));
#483=DIRECTION('',(1.,0.,0.));
#484=DIRECTION('',(0.,0.,1.));
#485=DIRECTION('center_axis',(0.707106781186547,0.707106781186548,0.));
#486=DIRECTION('ref_axis',(0.,0.,-1.));
#487=DIRECTION('',(0.707106781186548,-0.707106781186547,0.));
#488=DIRECTION('',(0.,0.,1.));
#489=DIRECTION('center_axis',(1.,0.,0.));
#490=DIRECTION('ref_axis',(0.,0.,-1.));
#491=DIRECTION('',(0.,-1.,0.));
#492=DIRECTION('',(0.,0.,1.));
#493=DIRECTION('',(0.,-1.,0.));
#494=DIRECTION('center_axis',(1.83697019872103E-016,-1.,0.));
#495=DIRECTION('ref_axis',(0.,0.,-1.));
#496=DIRECTION('',(-1.,-1.83697019872103E-016,0.));
#497=DIRECTION('',(0.,0.,1.));
#498=DIRECTION('',(-1.,-1.83697019872103E-016,0.));
#499=DIRECTION('center_axis',(-1.,-3.07840480892132E-034,0.));
#500=DIRECTION('ref_axis',(0.,0.,1.));
#501=DIRECTION('',(-3.07840480892132E-034,1.,0.));
#502=DIRECTION('',(-3.07840480892132E-034,1.,0.));
#503=DIRECTION('center_axis',(0.,0.,1.));
#504=DIRECTION('ref_axis',(1.,0.,0.));
#505=DIRECTION('center_axis',(0.,0.,1.));
#506=DIRECTION('ref_axis',(1.,0.,0.));
#507=CARTESIAN_POINT('',(0.,0.,0.));
#508=CARTESIAN_POINT('Origin',(-6.51908945899781E-016,17.,14.));
#509=CARTESIAN_POINT('',(5.,17.,17.2));
#510=CARTESIAN_POINT('',(5.,17.,10.8));
#511=CARTESIAN_POINT('Origin',(4.99999999999998,17.,14.));
#512=CARTESIAN_POINT('',(-6.51908945899781E-016,17.,17.2));
#513=CARTESIAN_POINT('',(-6.51908945899781E-016,17.,17.2));
#514=CARTESIAN_POINT('',(-6.51908945899781E-016,17.,10.8));
#515=CARTESIAN_POINT('Origin',(-1.07850236677872E-015,17.,14.));
#516=CARTESIAN_POINT('',(-6.51908945899781E-016,17.,10.8));
#517=CARTESIAN_POINT('Origin',(-6.51908945899781E-016,17.,17.2));
#518=CARTESIAN_POINT('',(5.,12.,17.2));
#519=CARTESIAN_POINT('',(4.99999999999998,16.75,17.2));
#520=CARTESIAN_POINT('',(-4.60171020635139E-016,12.,17.2));
#521=CARTESIAN_POINT('',(-4.60171020635139E-016,12.,17.2));
#522=CARTESIAN_POINT('',(0.,8.50000000000001,17.2));
#523=CARTESIAN_POINT('Origin',(-4.60171020635139E-016,12.,14.));
#524=CARTESIAN_POINT('',(5.,12.,10.8));
#525=CARTESIAN_POINT('Origin',(4.99999999999998,12.,14.));
#526=CARTESIAN_POINT('',(-4.60171020635139E-016,12.,10.8));
#527=CARTESIAN_POINT('',(-4.60171020635139E-016,12.,10.8));
#528=CARTESIAN_POINT('Origin',(-7.61295788314394E-016,12.,14.));
#529=CARTESIAN_POINT('Origin',(-4.60171020635139E-016,12.,10.8));
#530=CARTESIAN_POINT('',(4.99999999999998,14.25,10.8));
#531=CARTESIAN_POINT('',(0.,6.,10.8));
#532=CARTESIAN_POINT('Origin',(17.,3.12284933782575E-015,14.));
#533=CARTESIAN_POINT('',(17.,5.00000000000001,10.8));
#534=CARTESIAN_POINT('',(17.,5.00000000000001,17.2));
#535=CARTESIAN_POINT('Origin',(17.,5.,14.));
#536=CARTESIAN_POINT('',(17.,3.12284933782575E-015,10.8));
#537=CARTESIAN_POINT('',(17.,3.12284933782575E-015,10.8));
#538=CARTESIAN_POINT('',(17.,3.12284933782575E-015,17.2));
#539=CARTESIAN_POINT('Origin',(17.,3.39888037486507E-015,14.));
#540=CARTESIAN_POINT('',(17.,3.12284933782575E-015,17.2));
#541=CARTESIAN_POINT('Origin',(17.,3.12284933782575E-015,17.2));
#542=CARTESIAN_POINT('',(12.,5.00000000000001,17.2));
#543=CARTESIAN_POINT('',(22.5,5.00000000000001,17.2));
#544=CARTESIAN_POINT('',(12.,2.20436423846524E-015,17.2));
#545=CARTESIAN_POINT('',(22.5,4.13318294712232E-015,17.2));
#546=CARTESIAN_POINT('',(12.,2.20436423846524E-015,17.2));
#547=CARTESIAN_POINT('Origin',(12.,2.20436423846524E-015,14.));
#548=CARTESIAN_POINT('',(12.,5.00000000000001,10.8));
#549=CARTESIAN_POINT('Origin',(12.,5.,14.));
#550=CARTESIAN_POINT('',(12.,2.20436423846524E-015,10.8));
#551=CARTESIAN_POINT('Origin',(12.,2.60586392870424E-015,14.));
#552=CARTESIAN_POINT('',(12.,2.20436423846524E-015,10.8));
#553=CARTESIAN_POINT('Origin',(12.,2.20436423846524E-015,10.8));
#554=CARTESIAN_POINT('',(20.,5.00000000000001,10.8));
#555=CARTESIAN_POINT('',(20.,3.67394039744206E-015,10.8));
#556=CARTESIAN_POINT('Origin',(28.,5.00000000000001,3.));
#557=CARTESIAN_POINT('',(4.99999999999998,28.,3.));
#558=CARTESIAN_POINT('',(28.,5.00000000000001,3.));
#559=CARTESIAN_POINT('',(16.5,16.5,3.));
#560=CARTESIAN_POINT('',(4.99999999999998,5.00000000000001,3.));
#561=CARTESIAN_POINT('',(4.99999999999998,10.75,3.));
#562=CARTESIAN_POINT('',(28.,5.00000000000001,3.));
#563=CARTESIAN_POINT('Origin',(28.,5.00000000000001,25.));
#564=CARTESIAN_POINT('',(4.99999999999998,5.00000000000001,25.));
#565=CARTESIAN_POINT('',(4.99999999999998,5.,19.5));
#566=CARTESIAN_POINT('',(28.,5.00000000000001,25.));
#567=CARTESIAN_POINT('',(28.,5.00000000000001,25.));
#568=CARTESIAN_POINT('',(28.,5.00000000000001,0.));
#569=CARTESIAN_POINT('Origin',(28.,28.,25.));
#570=CARTESIAN_POINT('',(4.99999999999998,28.,25.));
#571=CARTESIAN_POINT('',(10.75,22.25,25.));
#572=CARTESIAN_POINT('',(4.99999999999998,22.25,25.));
#573=CARTESIAN_POINT('Origin',(4.99999999999998,16.5,14.));
#574=CARTESIAN_POINT('',(4.99999999999998,28.,0.));
#575=CARTESIAN_POINT('Origin',(4.99999999999998,28.,0.));
#576=CARTESIAN_POINT('',(28.,5.00000000000001,0.));
#577=CARTESIAN_POINT('',(28.,5.00000000000001,0.));
#578=CARTESIAN_POINT('',(4.99999999999998,28.,0.));
#579=CARTESIAN_POINT('',(4.99999999999998,28.,0.));
#580=CARTESIAN_POINT('',(4.99999999999998,28.,0.));
#581=CARTESIAN_POINT('Origin',(-8.61953346497968E-033,28.,0.));
#582=CARTESIAN_POINT('',(-8.61953346497968E-033,28.,28.));
#583=CARTESIAN_POINT('',(4.99999999999998,28.,28.));
#584=CARTESIAN_POINT('',(-8.61953346497968E-033,28.,28.));
#585=CARTESIAN_POINT('',(4.99999999999998,28.,0.));
#586=CARTESIAN_POINT('',(-8.61953346497968E-033,28.,0.));
#587=CARTESIAN_POINT('',(-8.61953346497968E-033,28.,0.));
#588=CARTESIAN_POINT('',(-8.61953346497968E-033,28.,0.));
#589=CARTESIAN_POINT('Origin',(4.99999999999998,28.,0.));
#590=CARTESIAN_POINT('',(28.,5.00000000000001,28.));
#591=CARTESIAN_POINT('',(4.99999999999998,28.,28.));
#592=CARTESIAN_POINT('',(28.,5.00000000000001,0.));
#593=CARTESIAN_POINT('Origin',(28.,5.00000000000001,0.));
#594=CARTESIAN_POINT('',(28.,5.14351655641888E-015,28.));
#595=CARTESIAN_POINT('',(28.,5.00000000000001,28.));
#596=CARTESIAN_POINT('',(28.,5.14351655641888E-015,0.));
#597=CARTESIAN_POINT('',(28.,5.14351655641888E-015,0.));
#598=CARTESIAN_POINT('',(28.,5.00000000000001,0.));
#599=CARTESIAN_POINT('Origin',(28.,5.14351655641888E-015,0.));
#600=CARTESIAN_POINT('',(0.,0.,28.));
#601=CARTESIAN_POINT('',(28.,5.14351655641888E-015,28.));
#602=CARTESIAN_POINT('',(0.,0.,0.));
#603=CARTESIAN_POINT('',(0.,0.,0.));
#604=CARTESIAN_POINT('',(28.,5.14351655641888E-015,0.));
#605=CARTESIAN_POINT('Origin',(0.,0.,0.));
#606=CARTESIAN_POINT('',(0.,0.,28.));
#607=CARTESIAN_POINT('',(0.,0.,0.));
#608=CARTESIAN_POINT('Origin',(10.9735911304971,10.9735911304971,28.));
#609=CARTESIAN_POINT('Origin',(10.9735911304971,10.9735911304971,0.));
#610=UNCERTAINTY_MEASURE_WITH_UNIT(LENGTH_MEASURE(0.01),#614,
'DISTANCE_ACCURACY_VALUE',
'Maximum model space distance between geometric entities at asserted c
onnectivities');
#611=UNCERTAINTY_MEASURE_WITH_UNIT(LENGTH_MEASURE(1.E-006),#614,
'DISTANCE_ACCURACY_VALUE',
'Maximum model space distance between geometric entities at asserted c
onnectivities');
#612=(
GEOMETRIC_REPRESENTATION_CONTEXT(3)
GLOBAL_UNCERTAINTY_ASSIGNED_CONTEXT((#610))
GLOBAL_UNIT_ASSIGNED_CONTEXT((#614,#617,#615))
REPRESENTATION_CONTEXT('','3D')
);
#613=(
GEOMETRIC_REPRESENTATION_CONTEXT(3)
GLOBAL_UNCERTAINTY_ASSIGNED_CONTEXT((#611))
GLOBAL_UNIT_ASSIGNED_CONTEXT((#614,#617,#615))
REPRESENTATION_CONTEXT('','3D')
);
#614=(
LENGTH_UNIT()
NAMED_UNIT(*)
SI_UNIT(.MILLI.,.METRE.)
);
#615=(
NAMED_UNIT(*)
SI_UNIT($,.STERADIAN.)
SOLID_ANGLE_UNIT()
);
#616=DIMENSIONAL_EXPONENTS(0.,0.,0.,0.,0.,0.,0.);
#617=(
CONVERSION_BASED_UNIT('degree',#619)
NAMED_UNIT(#616)
PLANE_ANGLE_UNIT()
);
#618=(
NAMED_UNIT(*)
PLANE_ANGLE_UNIT()
SI_UNIT($,.RADIAN.)
);
#619=PLANE_ANGLE_MEASURE_WITH_UNIT(PLANE_ANGLE_MEASURE(0.01745329252),#618);
#620=SHAPE_DEFINITION_REPRESENTATION(#621,#622);
#621=PRODUCT_DEFINITION_SHAPE('',$,#624);
#622=SHAPE_REPRESENTATION('',(#378),#612);
#623=PRODUCT_DEFINITION_CONTEXT('part definition',#628,'design');
#624=PRODUCT_DEFINITION('302828','302828',#625,#623);
#625=PRODUCT_DEFINITION_FORMATION('',$,#630);
#626=PRODUCT_RELATED_PRODUCT_CATEGORY('302828','302828',(#630));
#627=APPLICATION_PROTOCOL_DEFINITION('international standard',
'automotive_design',2009,#628);
#628=APPLICATION_CONTEXT(
'Core Data for Automotive Mechanical Design Process');
#629=PRODUCT_CONTEXT('part definition',#628,'mechanical');
#630=PRODUCT('302828','302828',$,(#629));
#631=PRESENTATION_STYLE_ASSIGNMENT((#632));
#632=SURFACE_STYLE_USAGE(.BOTH.,#633);
#633=SURFACE_SIDE_STYLE($,(#634));
#634=SURFACE_STYLE_FILL_AREA(#635);
#635=FILL_AREA_STYLE($,(#636));
#636=FILL_AREA_STYLE_COLOUR($,#637);
#637=COLOUR_RGB('',0.705882352941177,0.705882352941177,0.705882352941177);
ENDSEC;
END-ISO-10303-21;
