                                                                        S      1
,,,14H321300.stp.ipt,22HAutodesk Inventor 2014,7Hunknown,32,38,7,99,15,,G      1
1.,2,2HMM,1,0.08,15H20151020.095926,0.01,10000.,5Hzeman,,11,0,;         G      2
     406       1                       1                        00000000D      1
     406                       1       3                               0D      2
     186       2                                                00000000D      3
     186            -219       1       0                               0D      4
     514       3                                                00010000D      5
     514                       2       1                               0D      6
     510       5                                                00010000D      7
     510            -219       1       1                               0D      8
     510       6                                                00010000D      9
     510            -219       1       1                               0D     10
     510       7                                                00010000D     11
     510            -219       1       1                               0D     12
     510       8                                                00010000D     13
     510            -219       1       1                               0D     14
     510       9                                                00010000D     15
     510            -219       1       1                               0D     16
     510      10                                                00010000D     17
     510            -219       1       1                               0D     18
     510      11                                                00010000D     19
     510            -219       1       1                               0D     20
     510      12                                                00010000D     21
     510            -219       1       1                               0D     22
     510      13                                                00010000D     23
     510            -219       1       1                               0D     24
     510      14                                                00010000D     25
     510            -219       1       1                               0D     26
     510      15                                                00010000D     27
     510            -219       1       1                               0D     28
     510      16                                                00010000D     29
     510            -219       1       1                               0D     30
     508      17                                                00010000D     31
     508                       1       1                               0D     32
     508      18                                                00010000D     33
     508                       1       1                               0D     34
     508      19                                                00010000D     35
     508                       1       1                               0D     36
     508      20                                                00010000D     37
     508                       1       1                               0D     38
     508      21                                                00010000D     39
     508                       1       1                               0D     40
     508      22                                                00010000D     41
     508                       1       1                               0D     42
     508      23                                                00010000D     43
     508                       1       1                               0D     44
     508      24                                                00010000D     45
     508                       1       1                               0D     46
     508      25                                                00010000D     47
     508                       1       1                               0D     48
     508      26                                                00010000D     49
     508                       1       1                               0D     50
     508      27                                                00010000D     51
     508                       3       1                               0D     52
     508      30                                                00010000D     53
     508                       3       1                               0D     54
     110      33                                                00010000D     55
     110       0               1       0                               0D     56
     110      34                                                00010000D     57
     110       0               1       0                               0D     58
     110      35                                                00010000D     59
     110       0               1       0                               0D     60
     110      36                                                00010000D     61
     110       0               1       0                               0D     62
     110      37                                                00010000D     63
     110       0               2       0                               0D     64
     110      39                                                00010000D     65
     110       0               2       0                               0D     66
     110      41                                                00010000D     67
     110       0               2       0                               0D     68
     110      43                                                00010000D     69
     110       0               2       0                               0D     70
     110      45                                                00010000D     71
     110       0               1       0                               0D     72
     110      46                                                00010000D     73
     110       0               2       0                               0D     74
     110      48                                                00010000D     75
     110       0               1       0                               0D     76
     110      49                                                00010000D     77
     110       0               1       0                               0D     78
     110      50                                                00010000D     79
     110       0               1       0                               0D     80
     110      51                                                00010000D     81
     110       0               1       0                               0D     82
     110      52                                                00010000D     83
     110       0               1       0                               0D     84
     110      53                                                00010000D     85
     110       0               1       0                               0D     86
     110      54                                                00010000D     87
     110       0               1       0                               0D     88
     110      55                                                00010000D     89
     110       0               1       0                               0D     90
     110      56                                                00010000D     91
     110       0               1       0                               0D     92
     110      57                                                00010000D     93
     110       0               1       0                               0D     94
     110      58                                                00010000D     95
     110       0               1       0                               0D     96
     110      59                                                00010000D     97
     110       0               1       0                               0D     98
     110      60                                                00010000D     99
     110       0               1       0                               0D    100
     110      61                                                00010000D    101
     110       0               1       0                               0D    102
     110      62                                                00010000D    103
     110       0               1       0                               0D    104
     110      63                                                00010000D    105
     110       0               2       0                               0D    106
     110      65                                                00010000D    107
     110       0               2       0                               0D    108
     110      67                                                00010000D    109
     110       0               2       0                               0D    110
     110      69                                                00010000D    111
     110       0               2       0                               0D    112
     110      71                                                00010000D    113
     110       0               2       0                               0D    114
     190      73                                                00010000D    115
     190       0    -219       1       1                               0D    116
     190      74                                                00010000D    117
     190       0    -219       1       1                               0D    118
     190      75                                                00010000D    119
     190       0    -219       1       1                               0D    120
     190      76                                                00010000D    121
     190       0    -219       1       1                               0D    122
     190      77                                                00010000D    123
     190       0    -219       1       1                               0D    124
     190      78                                                00010000D    125
     190       0    -219       1       1                               0D    126
     190      79                                                00010000D    127
     190       0    -219       1       1                               0D    128
     190      80                                                00010000D    129
     190       0    -219       1       1                               0D    130
     190      81                                                00010000D    131
     190       0    -219       1       1                               0D    132
     190      82                                                00010000D    133
     190       0    -219       1       1                               0D    134
     190      83                                                00010000D    135
     190       0    -219       1       1                               0D    136
     190      84                                                00010000D    137
     190       0    -219       1       1                               0D    138
     123      85                                                00010200D    139
     123       0               1       0                               0D    140
     123      86                                                00010200D    141
     123       0               1       0                               0D    142
     123      87                                                00010200D    143
     123       0               1       0                               0D    144
     123      88                                                00010200D    145
     123       0               1       0                               0D    146
     123      89                                                00010200D    147
     123       0               1       0                               0D    148
     123      90                                                00010200D    149
     123       0               1       0                               0D    150
     123      91                                                00010200D    151
     123       0               1       0                               0D    152
     123      92                                                00010200D    153
     123       0               1       0                               0D    154
     123      93                                                00010200D    155
     123       0               1       0                               0D    156
     123      94                                                00010200D    157
     123       0               1       0                               0D    158
     123      95                                                00010200D    159
     123       0               1       0                               0D    160
     123      96                                                00010200D    161
     123       0               1       0                               0D    162
     123      97                                                00010200D    163
     123       0               1       0                               0D    164
     123      98                                                00010200D    165
     123       0               1       0                               0D    166
     123      99                                                00010200D    167
     123       0               1       0                               0D    168
     123     100                                                00010200D    169
     123       0               1       0                               0D    170
     123     101                                                00010200D    171
     123       0               1       0                               0D    172
     123     102                                                00010200D    173
     123       0               1       0                               0D    174
     123     103                                                00010200D    175
     123       0               1       0                               0D    176
     123     104                                                00010200D    177
     123       0               1       0                               0D    178
     123     105                                                00010200D    179
     123       0               1       0                               0D    180
     123     106                                                00010200D    181
     123       0               1       0                               0D    182
     123     107                                                00010200D    183
     123       0               1       0                               0D    184
     123     108                                                00010200D    185
     123       0               1       0                               0D    186
     116     109                                                00010000D    187
     116       0               1       0                               0D    188
     116     110                                                00010000D    189
     116       0               1       0                               0D    190
     116     111                                                00010000D    191
     116       0               1       0                               0D    192
     116     112                                                00010000D    193
     116       0               1       0                               0D    194
     116     113                                                00010000D    195
     116       0               1       0                               0D    196
     116     114                                                00010000D    197
     116       0               1       0                               0D    198
     116     115                                                00010000D    199
     116       0               1       0                               0D    200
     116     116                                                00010000D    201
     116       0               1       0                               0D    202
     116     117                                                00010000D    203
     116       0               1       0                               0D    204
     116     118                                                00010000D    205
     116       0               1       0                               0D    206
     116     119                                                00010000D    207
     116       0               1       0                               0D    208
     116     120                                                00010000D    209
     116       0               1       0                               0D    210
     502     121                                                00010000D    211
     502                       9       1                               0D    212
     504     130                                                00010001D    213
     504                       8       1                               0D    214
     406     138                                                00000000D    215
     406                       1      15                               0D    216
     314     139                                                00000200D    217
     314                       1       0                               0D    218
     314     140                                                00000200D    219
     314                       1       0                               0D    220
406,2,0,10H321300.stp;                                                 1P      1
186,5,1,0,0,1,215;                                                     3P      2
514,12,7,1,9,1,11,1,13,1,15,1,17,1,19,1,21,1,23,1,25,1,27,1,29,        5P      3
1;                                                                     5P      4
510,115,1,1,31;                                                        7P      5
510,117,1,1,33;                                                        9P      6
510,119,1,1,35;                                                       11P      7
510,121,1,1,37;                                                       13P      8
510,123,1,1,39;                                                       15P      9
510,125,1,1,41;                                                       17P     10
510,127,1,1,43;                                                       19P     11
510,129,1,1,45;                                                       21P     12
510,131,1,1,47;                                                       23P     13
510,133,1,1,49;                                                       25P     14
510,135,1,1,51;                                                       27P     15
510,137,1,1,53;                                                       29P     16
508,4,0,213,1,1,0,0,213,2,0,0,0,213,3,0,0,0,213,4,1,0;                31P     17
508,4,0,213,5,1,0,0,213,6,0,0,0,213,7,0,0,0,213,2,1,0;                33P     18
508,4,0,213,8,1,0,0,213,9,0,0,0,213,10,0,0,0,213,6,1,0;               35P     19
508,4,0,213,11,1,0,0,213,12,0,0,0,213,13,0,0,0,213,9,1,0;             37P     20
508,4,0,213,14,1,0,0,213,15,0,0,0,213,16,0,0,0,213,12,1,0;            39P     21
508,4,0,213,17,1,0,0,213,18,0,0,0,213,19,0,0,0,213,15,1,0;            41P     22
508,4,0,213,20,1,0,0,213,21,0,0,0,213,22,0,0,0,213,18,1,0;            43P     23
508,4,0,213,23,1,0,0,213,24,0,0,0,213,25,0,0,0,213,21,1,0;            45P     24
508,4,0,213,26,1,0,0,213,27,0,0,0,213,28,0,0,0,213,24,1,0;            47P     25
508,4,0,213,29,1,0,0,213,4,0,0,0,213,30,0,0,0,213,27,1,0;             49P     26
508,10,0,213,17,0,0,0,213,14,0,0,0,213,11,0,0,0,213,8,0,0,0,213,      51P     27
5,0,0,0,213,1,0,0,0,213,29,0,0,0,213,26,0,0,0,213,23,0,0,0,213,       51P     28
20,0,0;                                                               51P     29
508,10,0,213,19,1,0,0,213,22,1,0,0,213,25,1,0,0,213,28,1,0,0,         53P     30
213,30,1,0,0,213,3,1,0,0,213,7,1,0,0,213,10,1,0,0,213,13,1,0,0,       53P     31
213,16,1,0;                                                           53P     32
110,-4.10000000000002,4.,100.,4.10000000000002,4.,100.;               55P     33
110,4.10000000000002,4.,0.,4.10000000000002,4.,100.;                  57P     34
110,-4.10000000000002,4.,0.,4.10000000000002,4.,0.;                   59P     35
110,-4.10000000000002,4.,0.,-4.10000000000002,4.,100.;                61P     36
110,4.10000000000002,4.,100.,4.10000000000002,0.200000000000004,      63P     37
100.;                                                                 63P     38
110,4.10000000000002,0.200000000000004,0.,4.10000000000002,           65P     39
0.200000000000004,100.;                                               65P     40
110,4.10000000000002,4.,0.,4.10000000000002,0.200000000000004,        67P     41
0.;                                                                   67P     42
110,4.10000000000002,0.200000000000004,100.,6.9,                      69P     43
0.200000000000004,100.;                                               69P     44
110,6.9,0.200000000000004,0.,6.9,0.200000000000004,100.;              71P     45
110,4.10000000000002,0.200000000000004,0.,6.9,0.200000000000004,      73P     46
0.;                                                                   73P     47
110,6.9,0.200000000000004,100.,6.9,-2.,100.;                          75P     48
110,6.9,-2.,0.,6.9,-2.,100.;                                          77P     49
110,6.9,0.200000000000004,0.,6.9,-2.,0.;                              79P     50
110,6.9,-2.,100.,4.9,-4.,100.;                                        81P     51
110,4.9,-4.,0.,4.9,-4.,100.;                                          83P     52
110,6.9,-2.,0.,4.9,-4.,0.;                                            85P     53
110,4.9,-4.,100.,-4.90000000000001,-4.,100.;                          87P     54
110,-4.90000000000001,-4.,0.,-4.90000000000001,-4.,100.;              89P     55
110,4.9,-4.,0.,-4.90000000000001,-4.,0.;                              91P     56
110,-4.90000000000001,-4.,100.,-6.9,-2.,100.;                         93P     57
110,-6.9,-2.,0.,-6.9,-2.,100.;                                        95P     58
110,-4.90000000000001,-4.,0.,-6.9,-2.,0.;                             97P     59
110,-6.9,-2.,100.,-6.9,0.200000000000004,100.;                        99P     60
110,-6.9,0.200000000000004,0.,-6.9,0.200000000000004,100.;           101P     61
110,-6.9,-2.,0.,-6.9,0.200000000000004,0.;                           103P     62
110,-6.9,0.200000000000004,100.,-4.10000000000002,                   105P     63
0.200000000000004,100.;                                              105P     64
110,-4.10000000000002,0.200000000000004,0.,-4.10000000000002,        107P     65
0.200000000000004,100.;                                              107P     66
110,-6.9,0.200000000000004,0.,-4.10000000000002,                     109P     67
0.200000000000004,0.;                                                109P     68
110,-4.10000000000002,0.200000000000004,100.,-4.10000000000002,      111P     69
4.,100.;                                                             111P     70
110,-4.10000000000002,0.200000000000004,0.,-4.10000000000002,4.,     113P     71
0.;                                                                  113P     72
190,187,139,141;                                                     115P     73
190,189,143,145;                                                     117P     74
190,191,147,149;                                                     119P     75
190,193,151,153;                                                     121P     76
190,195,155,157;                                                     123P     77
190,197,159,161;                                                     125P     78
190,199,163,165;                                                     127P     79
190,201,167,169;                                                     129P     80
190,203,171,173;                                                     131P     81
190,205,175,177;                                                     133P     82
190,207,179,181;                                                     135P     83
190,209,183,185;                                                     137P     84
123,2.03089577675332D-016,1.,0.;                                     139P     85
123,0.,0.,1.;                                                        141P     86
123,1.,0.,0.;                                                        143P     87
123,0.,0.,-1.;                                                       145P     88
123,0.,1.,0.;                                                        147P     89
123,0.,0.,1.;                                                        149P     90
123,1.,0.,0.;                                                        151P     91
123,0.,0.,-1.;                                                       153P     92
123,0.707106781186547,-0.707106781186548,0.;                         155P     93
123,0.,0.,-1.;                                                       157P     94
123,-1.69932095605891D-016,-1.,0.;                                   159P     95
123,0.,0.,-1.;                                                       161P     96
123,-0.707106781186548,-0.707106781186547,0.;                        163P     97
123,0.,0.,1.;                                                        165P     98
123,-1.,0.,0.;                                                       167P     99
123,0.,0.,1.;                                                        169P    100
123,0.,1.,0.;                                                        171P    101
123,0.,0.,1.;                                                        173P    102
123,-1.,0.,0.;                                                       175P    103
123,0.,0.,1.;                                                        177P    104
123,0.,0.,1.;                                                        179P    105
123,1.,0.,0.;                                                        181P    106
123,-0.,-0.,-1.;                                                     183P    107
123,1.,0.,0.;                                                        185P    108
116,-4.10000000000002,4.,0.,0;                                       187P    109
116,4.10000000000002,4.,0.,0;                                        189P    110
116,4.10000000000002,0.200000000000004,0.,0;                         191P    111
116,6.9,0.200000000000004,0.,0;                                      193P    112
116,6.9,-2.,0.,0;                                                    195P    113
116,4.9,-4.,0.,0;                                                    197P    114
116,-4.90000000000001,-4.,0.,0;                                      199P    115
116,-6.9,-2.,0.,0;                                                   201P    116
116,-6.9,0.200000000000004,0.,0;                                     203P    117
116,-4.10000000000002,0.200000000000004,0.,0;                        205P    118
116,0.,0.,100.,0;                                                    207P    119
116,0.,0.,0.,0;                                                      209P    120
502,20,-4.10000000000002,4.,100.,4.10000000000002,4.,100.,           211P    121
4.10000000000002,4.,0.,-4.10000000000002,4.,0.,4.10000000000002,     211P    122
0.200000000000004,100.,4.10000000000002,0.200000000000004,0.,        211P    123
6.9,0.200000000000004,100.,6.9,0.200000000000004,0.,6.9,-2.,         211P    124
100.,6.9,-2.,0.,4.9,-4.,100.,4.9,-4.,0.,-4.90000000000001,-4.,       211P    125
100.,-4.90000000000001,-4.,0.,-6.9,-2.,100.,-6.9,-2.,0.,-6.9,        211P    126
0.200000000000004,100.,-6.9,0.200000000000004,0.,                    211P    127
-4.10000000000002,0.200000000000004,100.,-4.10000000000002,          211P    128
0.200000000000004,0.;                                                211P    129
504,30,55,211,1,211,2,57,211,3,211,2,59,211,4,211,3,61,211,4,        213P    130
211,1,63,211,2,211,5,65,211,6,211,5,67,211,3,211,6,69,211,5,211,     213P    131
7,71,211,8,211,7,73,211,6,211,8,75,211,7,211,9,77,211,10,211,9,      213P    132
79,211,8,211,10,81,211,9,211,11,83,211,12,211,11,85,211,10,211,      213P    133
12,87,211,11,211,13,89,211,14,211,13,91,211,12,211,14,93,211,13,     213P    134
211,15,95,211,16,211,15,97,211,14,211,16,99,211,15,211,17,101,       213P    135
211,18,211,17,103,211,16,211,18,105,211,17,211,19,107,211,20,        213P    136
211,19,109,211,18,211,20,111,211,19,211,1,113,211,20,211,4;          213P    137
406,1,8HTěleso1;                                                    215P    138
314,74.9019607843137,74.9019607843137,74.9019607843137,;             217P    139
314,87.843137254902,87.4509803921569,85.8823529411765,;              219P    140
S      1G      2D    220P    140                                        T      1
