ISO-10303-21;
HEADER;
/****************************************************************
 * Generated by software with PDE/Lib inside                    *
 * PDElib Version v51a, created Mon 03/22/2010                  *
 * International Technegroup Inc. (www.iti-oh.com)              *
 ****************************************************************/
FILE_DESCRIPTION((''),'2;1');
FILE_NAME('D:\\P\X2\0159\X0\evod katalogu\\P\X2\0159\X0\evod do STEP\\Modul 45\\Spojovac\S\m dopl\X2\0148\X0\ky\\324547\\324547.ipt.stp','2010-09-05T12:24:24',(''),(''),'Autodesk Inventor 2010','Autodesk Inventor 2010','');
FILE_SCHEMA(('AUTOMOTIVE_DESIGN { 1 0 10303 214 1 1 1 1 }'));
ENDSEC;
DATA;
#5=APPLICATION_CONTEXT('automotive design');
#6=APPLICATION_PROTOCOL_DEFINITION('International Standard','automotive_design',2001,#5);
#7=PRODUCT_CONTEXT('',#5,'mechanical');
#8=PRODUCT('324547','324547',$,(#7));
#9=PRODUCT_RELATED_PRODUCT_CATEGORY('part',$,(#8));
#10=PRODUCT_DEFINITION_FORMATION('',$,#8);
#11=PRODUCT_DEFINITION_CONTEXT('part definition',#5,'design');
#12=PRODUCT_DEFINITION('',$,#10,#11);
#18=(NAMED_UNIT(*)PLANE_ANGLE_UNIT()SI_UNIT($,.RADIAN.));
#19=DIMENSIONAL_EXPONENTS(0.0,0.0,0.0,0.0,0.0,0.0,0.0);
#20=PLANE_ANGLE_MEASURE_WITH_UNIT(PLANE_ANGLE_MEASURE(0.017453292500000),#18);
#24=(CONVERSION_BASED_UNIT('DEGREE',#20)NAMED_UNIT(#19)PLANE_ANGLE_UNIT());
#28=(NAMED_UNIT(*)SI_UNIT($,.STERADIAN.)SOLID_ANGLE_UNIT());
#32=(LENGTH_UNIT()NAMED_UNIT(*)SI_UNIT(.MILLI.,.METRE.));
#34=UNCERTAINTY_MEASURE_WITH_UNIT(LENGTH_MEASURE(0.010000000000000),#32,'DISTANCE_ACCURACY_VALUE','');
#36=(GEOMETRIC_REPRESENTATION_CONTEXT(3)GLOBAL_UNCERTAINTY_ASSIGNED_CONTEXT((#34))GLOBAL_UNIT_ASSIGNED_CONTEXT((#24,#28,#32))REPRESENTATION_CONTEXT('None','None'));
#37=AXIS2_PLACEMENT_3D('',#38,#39,#40);
#38=CARTESIAN_POINT('',(0.0,0.0,0.0));
#39=DIRECTION('',(0.0,0.0,1.0));
#40=DIRECTION('',(1.0,0.0,0.0));
#41=SHAPE_REPRESENTATION('',(#37),#36);
#42=PRODUCT_DEFINITION_SHAPE('','',#12);
#43=SHAPE_DEFINITION_REPRESENTATION(#42,#41);
#49=(NAMED_UNIT(*)PLANE_ANGLE_UNIT()SI_UNIT($,.RADIAN.));
#50=DIMENSIONAL_EXPONENTS(0.0,0.0,0.0,0.0,0.0,0.0,0.0);
#51=PLANE_ANGLE_MEASURE_WITH_UNIT(PLANE_ANGLE_MEASURE(0.017453292500000),#49);
#55=(CONVERSION_BASED_UNIT('DEGREE',#51)NAMED_UNIT(#50)PLANE_ANGLE_UNIT());
#59=(NAMED_UNIT(*)SI_UNIT($,.STERADIAN.)SOLID_ANGLE_UNIT());
#63=(LENGTH_UNIT()NAMED_UNIT(*)SI_UNIT(.MILLI.,.METRE.));
#65=UNCERTAINTY_MEASURE_WITH_UNIT(LENGTH_MEASURE(0.000001000000000),#63,'DISTANCE_ACCURACY_VALUE','');
#67=(GEOMETRIC_REPRESENTATION_CONTEXT(3)GLOBAL_UNCERTAINTY_ASSIGNED_CONTEXT((#65))GLOBAL_UNIT_ASSIGNED_CONTEXT((#55,#59,#63))REPRESENTATION_CONTEXT('','3D'));
#68=CARTESIAN_POINT('',(-15.749999999999998,6.750000000000000,1.000000000000003));
#69=CARTESIAN_POINT('',(-2.249999999999998,6.750000000000000,0.999999999999999));
#70=CARTESIAN_POINT('',(-15.749999999999998,-6.750000000000000,1.000000000000003));
#71=CARTESIAN_POINT('',(-2.249999999999998,-6.750000000000000,0.999999999999999));
#72=B_SPLINE_SURFACE_WITH_KNOTS('',1,1,((#68,#70),(#69,#71)),.UNSPECIFIED.,.F.,.F.,.U.,(2,2),(2,2),(0.0,13.500000000000000),(0.0,13.500000000000000),.UNSPECIFIED.);
#73=CARTESIAN_POINT('',(-2.249999999999997,0.0,0.999999999999999));
#74=VERTEX_POINT('',#73);
#75=CARTESIAN_POINT('',(-8.999999999999998,0.0,1.000000000000001));
#76=DIRECTION('',(0.0,0.0,1.0));
#77=DIRECTION('',(1.0,0.0,0.0));
#78=AXIS2_PLACEMENT_3D('',#75,#76,#77);
#79=CIRCLE('',#78,6.750000000000000);
#80=EDGE_CURVE('',#74,#74,#79,.T.);
#81=ORIENTED_EDGE('',*,*,#80,.T.);
#82=EDGE_LOOP('',(#81));
#83=FACE_OUTER_BOUND('',#82,.T.);
#84=CARTESIAN_POINT('',(-13.250000000000000,0.0,1.000000000000002));
#85=VERTEX_POINT('',#84);
#86=CARTESIAN_POINT('',(-8.999999999999998,0.0,1.000000000000001));
#87=DIRECTION('',(0.0,0.0,1.0));
#88=DIRECTION('',(1.0,0.0,0.0));
#89=AXIS2_PLACEMENT_3D('',#86,#87,#88);
#90=CIRCLE('',#89,4.250000000000000);
#91=EDGE_CURVE('',#85,#85,#90,.T.);
#92=ORIENTED_EDGE('',*,*,#91,.F.);
#93=EDGE_LOOP('',(#92));
#94=FACE_BOUND('',#93,.T.);
#95=ADVANCED_FACE('',(#83,#94),#72,.F.);
#96=CARTESIAN_POINT('',(-15.749999999999998,-8.266366E-016,6.500000000000007));
#97=CARTESIAN_POINT('',(-15.749999999999998,-8.266366E-016,0.999999999999998));
#98=CARTESIAN_POINT('',(-15.749999999999995,-6.749999999999999,6.500000000000007));
#99=CARTESIAN_POINT('',(-15.749999999999995,-6.749999999999999,0.999999999999998));
#100=CARTESIAN_POINT('',(-8.999999999999998,-6.750000000000000,6.500000000000005));
#101=CARTESIAN_POINT('',(-8.999999999999998,-6.750000000000000,0.999999999999996));
#102=CARTESIAN_POINT('',(-2.250000000000000,-6.749999999999997,6.500000000000003));
#103=CARTESIAN_POINT('',(-2.250000000000000,-6.749999999999997,0.999999999999995));
#104=CARTESIAN_POINT('',(-2.249999999999998,8.266366E-016,6.500000000000004));
#105=CARTESIAN_POINT('',(-2.249999999999998,8.266366E-016,0.999999999999995));
#106=CARTESIAN_POINT('',(-2.250000000000000,6.749999999999999,6.500000000000003));
#107=CARTESIAN_POINT('',(-2.250000000000000,6.749999999999999,0.999999999999995));
#108=CARTESIAN_POINT('',(-8.999999999999998,6.750000000000000,6.500000000000005));
#109=CARTESIAN_POINT('',(-8.999999999999998,6.750000000000000,0.999999999999996));
#110=CARTESIAN_POINT('',(-15.749999999999995,6.749999999999997,6.500000000000007));
#111=CARTESIAN_POINT('',(-15.749999999999995,6.749999999999997,0.999999999999998));
#112=CARTESIAN_POINT('',(-15.749999999999998,-8.266366E-016,6.500000000000007));
#113=CARTESIAN_POINT('',(-15.749999999999998,-8.266366E-016,0.999999999999998));
#121=(BOUNDED_SURFACE()B_SPLINE_SURFACE(1,2,((#96,#98,#100,#102,#104,#106,#108,#110,#112),(#97,#99,#101,#103,#105,#107,#109,#111,#113)),.UNSPECIFIED.,.F.,.T.,.U.)B_SPLINE_SURFACE_WITH_KNOTS((2,2),(3,2,2,2,3),(-0.407407407407408,0.407407407407408),(0.0,10.602875205865551,21.205750411731103,31.808625617596654,42.411500823462205),.UNSPECIFIED.)GEOMETRIC_REPRESENTATION_ITEM()RATIONAL_B_SPLINE_SURFACE(((1.0,0.707106781186548,1.0,0.707106781186548,1.0,0.707106781186548,1.0,0.707106781186548,1.0),(1.0,0.707106781186548,1.0,0.707106781186548,1.0,0.707106781186548,1.0,0.707106781186548,1.0)))REPRESENTATION_ITEM('')SURFACE());
#122=CARTESIAN_POINT('',(-2.249999999999996,0.0,6.499999999999999));
#123=VERTEX_POINT('',#122);
#124=CARTESIAN_POINT('',(-8.999999999999996,0.0,6.500000000000002));
#125=DIRECTION('',(0.0,0.0,-1.0));
#126=DIRECTION('',(1.0,0.0,0.0));
#127=AXIS2_PLACEMENT_3D('',#124,#125,#126);
#128=CIRCLE('',#127,6.750000000000000);
#129=EDGE_CURVE('',#123,#123,#128,.T.);
#130=ORIENTED_EDGE('',*,*,#129,.F.);
#131=EDGE_LOOP('',(#130));
#132=FACE_OUTER_BOUND('',#131,.T.);
#133=ORIENTED_EDGE('',*,*,#80,.F.);
#134=EDGE_LOOP('',(#133));
#135=FACE_BOUND('',#134,.T.);
#136=ADVANCED_FACE('',(#132,#135),#121,.F.);
#137=CARTESIAN_POINT('',(-13.249999999999998,-5.204749E-016,1.000000000000004));
#138=CARTESIAN_POINT('',(-13.250000000000004,-5.204749E-016,-17.500000000000004));
#139=CARTESIAN_POINT('',(-13.249999999999996,-4.250000000000000,1.000000000000004));
#140=CARTESIAN_POINT('',(-13.250000000000004,-4.250000000000000,-17.500000000000004));
#141=CARTESIAN_POINT('',(-8.999999999999998,-4.250000000000000,1.000000000000004));
#142=CARTESIAN_POINT('',(-9.000000000000004,-4.250000000000000,-17.500000000000007));
#143=CARTESIAN_POINT('',(-4.749999999999999,-4.249999999999998,1.000000000000003));
#144=CARTESIAN_POINT('',(-4.750000000000004,-4.249999999999998,-17.500000000000011));
#145=CARTESIAN_POINT('',(-4.749999999999998,5.204749E-016,1.000000000000003));
#146=CARTESIAN_POINT('',(-4.750000000000004,5.204749E-016,-17.500000000000011));
#147=CARTESIAN_POINT('',(-4.749999999999999,4.250000000000000,1.000000000000003));
#148=CARTESIAN_POINT('',(-4.750000000000004,4.250000000000000,-17.500000000000011));
#149=CARTESIAN_POINT('',(-8.999999999999998,4.250000000000000,1.000000000000004));
#150=CARTESIAN_POINT('',(-9.000000000000004,4.250000000000000,-17.500000000000007));
#151=CARTESIAN_POINT('',(-13.249999999999996,4.249999999999998,1.000000000000004));
#152=CARTESIAN_POINT('',(-13.250000000000004,4.249999999999998,-17.500000000000004));
#153=CARTESIAN_POINT('',(-13.249999999999998,-5.204749E-016,1.000000000000004));
#154=CARTESIAN_POINT('',(-13.250000000000004,-5.204749E-016,-17.500000000000004));
#162=(BOUNDED_SURFACE()B_SPLINE_SURFACE(1,2,((#137,#139,#141,#143,#145,#147,#149,#151,#153),(#138,#140,#142,#144,#146,#148,#150,#152,#154)),.UNSPECIFIED.,.F.,.T.,.U.)B_SPLINE_SURFACE_WITH_KNOTS((2,2),(3,2,2,2,3),(-1.529411764705883,2.823529411764707),(0.0,6.675884388878311,13.351768777756622,20.027653166634931,26.703537555513243),.UNSPECIFIED.)GEOMETRIC_REPRESENTATION_ITEM()RATIONAL_B_SPLINE_SURFACE(((1.0,0.707106781186548,1.0,0.707106781186548,1.0,0.707106781186548,1.0,0.707106781186548,1.0),(1.0,0.707106781186548,1.0,0.707106781186548,1.0,0.707106781186548,1.0,0.707106781186548,1.0)))REPRESENTATION_ITEM('')SURFACE());
#163=ORIENTED_EDGE('',*,*,#91,.T.);
#164=EDGE_LOOP('',(#163));
#165=FACE_OUTER_BOUND('',#164,.T.);
#166=CARTESIAN_POINT('',(-4.750000000000004,0.0,-17.500000000000004));
#167=VERTEX_POINT('',#166);
#168=CARTESIAN_POINT('',(-9.000000000000004,0.0,-17.500000000000004));
#169=DIRECTION('',(0.0,0.0,1.0));
#170=DIRECTION('',(1.0,0.0,0.0));
#171=AXIS2_PLACEMENT_3D('',#168,#169,#170);
#172=CIRCLE('',#171,4.250000000000002);
#173=EDGE_CURVE('',#167,#167,#172,.T.);
#174=ORIENTED_EDGE('',*,*,#173,.F.);
#175=EDGE_LOOP('',(#174));
#176=FACE_BOUND('',#175,.T.);
#177=ADVANCED_FACE('',(#165,#176),#162,.F.);
#178=CARTESIAN_POINT('',(5.0,-20.0,-6.245005E-016));
#179=DIRECTION('',(-1.0,0.0,0.0));
#180=DIRECTION('',(0.0,0.0,1.0));
#181=AXIS2_PLACEMENT_3D('',#178,#179,#180);
#182=PLANE('',#181);
#183=CARTESIAN_POINT('',(5.0,20.0,-6.245005E-016));
#184=VERTEX_POINT('',#183);
#185=CARTESIAN_POINT('',(5.0,20.0,-1.000000000000001));
#186=VERTEX_POINT('',#185);
#187=CARTESIAN_POINT('',(5.0,20.0,-6.245005E-016));
#188=DIRECTION('',(0.0,0.0,-1.0));
#189=VECTOR('',#188,1.000000000000000);
#190=LINE('',#187,#189);
#191=EDGE_CURVE('',#184,#186,#190,.T.);
#192=ORIENTED_EDGE('',*,*,#191,.T.);
#193=CARTESIAN_POINT('',(5.0,-20.0,-1.000000000000001));
#194=VERTEX_POINT('',#193);
#195=CARTESIAN_POINT('',(5.0,-20.0,-1.000000000000001));
#196=DIRECTION('',(0.0,1.0,0.0));
#197=VECTOR('',#196,40.0);
#198=LINE('',#195,#197);
#199=EDGE_CURVE('',#194,#186,#198,.T.);
#200=ORIENTED_EDGE('',*,*,#199,.F.);
#201=CARTESIAN_POINT('',(5.0,-20.0,-6.245005E-016));
#202=VERTEX_POINT('',#201);
#203=CARTESIAN_POINT('',(5.0,-20.0,-6.245005E-016));
#204=DIRECTION('',(0.0,0.0,-1.0));
#205=VECTOR('',#204,1.000000000000000);
#206=LINE('',#203,#205);
#207=EDGE_CURVE('',#202,#194,#206,.T.);
#208=ORIENTED_EDGE('',*,*,#207,.F.);
#209=CARTESIAN_POINT('',(5.0,-20.0,-6.245005E-016));
#210=DIRECTION('',(0.0,1.0,0.0));
#211=VECTOR('',#210,40.0);
#212=LINE('',#209,#211);
#213=EDGE_CURVE('',#202,#184,#212,.T.);
#214=ORIENTED_EDGE('',*,*,#213,.T.);
#215=EDGE_LOOP('',(#192,#200,#208,#214));
#216=FACE_OUTER_BOUND('',#215,.T.);
#217=ADVANCED_FACE('',(#216),#182,.T.);
#218=CARTESIAN_POINT('',(5.0,-20.0,-1.000000000000001));
#219=DIRECTION('',(0.0,0.0,-1.0));
#220=DIRECTION('',(-1.0,0.0,0.0));
#221=AXIS2_PLACEMENT_3D('',#218,#219,#220);
#222=PLANE('',#221);
#223=CARTESIAN_POINT('',(7.999999999999998,20.0,-1.000000000000001));
#224=VERTEX_POINT('',#223);
#225=CARTESIAN_POINT('',(5.0,20.0,-1.000000000000001));
#226=DIRECTION('',(1.0,0.0,0.0));
#227=VECTOR('',#226,3.0);
#228=LINE('',#225,#227);
#229=EDGE_CURVE('',#186,#224,#228,.T.);
#230=ORIENTED_EDGE('',*,*,#229,.T.);
#231=CARTESIAN_POINT('',(7.999999999999998,-20.0,-1.000000000000001));
#232=VERTEX_POINT('',#231);
#233=CARTESIAN_POINT('',(7.999999999999998,-20.0,-1.000000000000001));
#234=DIRECTION('',(0.0,1.0,0.0));
#235=VECTOR('',#234,40.0);
#236=LINE('',#233,#235);
#237=EDGE_CURVE('',#232,#224,#236,.T.);
#238=ORIENTED_EDGE('',*,*,#237,.F.);
#239=CARTESIAN_POINT('',(5.0,-20.0,-1.000000000000001));
#240=DIRECTION('',(1.0,0.0,0.0));
#241=VECTOR('',#240,3.0);
#242=LINE('',#239,#241);
#243=EDGE_CURVE('',#194,#232,#242,.T.);
#244=ORIENTED_EDGE('',*,*,#243,.F.);
#245=ORIENTED_EDGE('',*,*,#199,.T.);
#246=EDGE_LOOP('',(#230,#238,#244,#245));
#247=FACE_OUTER_BOUND('',#246,.T.);
#248=ADVANCED_FACE('',(#247),#222,.T.);
#249=CARTESIAN_POINT('',(7.999999999999998,-20.0,-1.000000000000001));
#250=DIRECTION('',(1.0,0.0,0.0));
#251=DIRECTION('',(0.0,0.0,-1.0));
#252=AXIS2_PLACEMENT_3D('',#249,#250,#251);
#253=PLANE('',#252);
#254=CARTESIAN_POINT('',(8.000000000000004,20.0,6.499999999999996));
#255=VERTEX_POINT('',#254);
#256=CARTESIAN_POINT('',(7.999999999999998,20.0,-1.000000000000001));
#257=DIRECTION('',(0.0,0.0,1.0));
#258=VECTOR('',#257,7.499999999999998);
#259=LINE('',#256,#258);
#260=EDGE_CURVE('',#224,#255,#259,.T.);
#261=ORIENTED_EDGE('',*,*,#260,.T.);
#262=CARTESIAN_POINT('',(8.000000000000004,-20.0,6.499999999999996));
#263=VERTEX_POINT('',#262);
#264=CARTESIAN_POINT('',(8.000000000000004,-20.0,6.499999999999996));
#265=DIRECTION('',(0.0,1.0,0.0));
#266=VECTOR('',#265,40.0);
#267=LINE('',#264,#266);
#268=EDGE_CURVE('',#263,#255,#267,.T.);
#269=ORIENTED_EDGE('',*,*,#268,.F.);
#270=CARTESIAN_POINT('',(7.999999999999998,-20.0,-1.000000000000001));
#271=DIRECTION('',(0.0,0.0,1.0));
#272=VECTOR('',#271,7.499999999999998);
#273=LINE('',#270,#272);
#274=EDGE_CURVE('',#232,#263,#273,.T.);
#275=ORIENTED_EDGE('',*,*,#274,.F.);
#276=ORIENTED_EDGE('',*,*,#237,.T.);
#277=EDGE_LOOP('',(#261,#269,#275,#276));
#278=FACE_OUTER_BOUND('',#277,.T.);
#279=ADVANCED_FACE('',(#278),#253,.T.);
#280=CARTESIAN_POINT('',(8.000000000000004,-20.0,6.499999999999996));
#281=DIRECTION('',(0.0,0.0,1.0));
#282=DIRECTION('',(1.0,0.0,0.0));
#283=AXIS2_PLACEMENT_3D('',#280,#281,#282);
#284=PLANE('',#283);
#285=CARTESIAN_POINT('',(-17.0,20.0,6.500000000000004));
#286=VERTEX_POINT('',#285);
#287=CARTESIAN_POINT('',(8.000000000000004,20.0,6.499999999999996));
#288=DIRECTION('',(-1.0,0.0,0.0));
#289=VECTOR('',#288,25.0);
#290=LINE('',#287,#289);
#291=EDGE_CURVE('',#255,#286,#290,.T.);
#292=ORIENTED_EDGE('',*,*,#291,.T.);
#293=CARTESIAN_POINT('',(-17.0,-20.0,6.500000000000004));
#294=VERTEX_POINT('',#293);
#295=CARTESIAN_POINT('',(-17.0,-20.0,6.500000000000004));
#296=DIRECTION('',(0.0,1.0,0.0));
#297=VECTOR('',#296,40.0);
#298=LINE('',#295,#297);
#299=EDGE_CURVE('',#294,#286,#298,.T.);
#300=ORIENTED_EDGE('',*,*,#299,.F.);
#301=CARTESIAN_POINT('',(8.000000000000004,-20.0,6.499999999999996));
#302=DIRECTION('',(-1.0,0.0,0.0));
#303=VECTOR('',#302,25.0);
#304=LINE('',#301,#303);
#305=EDGE_CURVE('',#263,#294,#304,.T.);
#306=ORIENTED_EDGE('',*,*,#305,.F.);
#307=ORIENTED_EDGE('',*,*,#268,.T.);
#308=EDGE_LOOP('',(#292,#300,#306,#307));
#309=FACE_OUTER_BOUND('',#308,.T.);
#310=ORIENTED_EDGE('',*,*,#129,.T.);
#311=EDGE_LOOP('',(#310));
#312=FACE_BOUND('',#311,.T.);
#313=ADVANCED_FACE('',(#309,#312),#284,.T.);
#314=CARTESIAN_POINT('',(-17.0,-20.0,6.500000000000004));
#315=DIRECTION('',(-1.0,0.0,0.0));
#316=DIRECTION('',(0.0,0.0,1.0));
#317=AXIS2_PLACEMENT_3D('',#314,#315,#316);
#318=PLANE('',#317);
#319=CARTESIAN_POINT('',(-17.000000000000007,20.0,-17.500000000000000));
#320=VERTEX_POINT('',#319);
#321=CARTESIAN_POINT('',(-17.0,20.0,6.500000000000004));
#322=DIRECTION('',(0.0,0.0,-1.0));
#323=VECTOR('',#322,24.000000000000004);
#324=LINE('',#321,#323);
#325=EDGE_CURVE('',#286,#320,#324,.T.);
#326=ORIENTED_EDGE('',*,*,#325,.T.);
#327=CARTESIAN_POINT('',(-17.000000000000007,-20.0,-17.500000000000000));
#328=VERTEX_POINT('',#327);
#329=CARTESIAN_POINT('',(-17.000000000000007,-20.0,-17.500000000000000));
#330=DIRECTION('',(0.0,1.0,0.0));
#331=VECTOR('',#330,40.0);
#332=LINE('',#329,#331);
#333=EDGE_CURVE('',#328,#320,#332,.T.);
#334=ORIENTED_EDGE('',*,*,#333,.F.);
#335=CARTESIAN_POINT('',(-17.0,-20.0,6.500000000000004));
#336=DIRECTION('',(0.0,0.0,-1.0));
#337=VECTOR('',#336,24.000000000000004);
#338=LINE('',#335,#337);
#339=EDGE_CURVE('',#294,#328,#338,.T.);
#340=ORIENTED_EDGE('',*,*,#339,.F.);
#341=ORIENTED_EDGE('',*,*,#299,.T.);
#342=EDGE_LOOP('',(#326,#334,#340,#341));
#343=FACE_OUTER_BOUND('',#342,.T.);
#344=ADVANCED_FACE('',(#343),#318,.T.);
#345=CARTESIAN_POINT('',(-17.000000000000007,-20.0,-17.500000000000000));
#346=DIRECTION('',(0.0,0.0,-1.0));
#347=DIRECTION('',(-1.0,0.0,0.0));
#348=AXIS2_PLACEMENT_3D('',#345,#346,#347);
#349=PLANE('',#348);
#350=CARTESIAN_POINT('',(-6.661338E-015,20.0,-17.500000000000004));
#351=VERTEX_POINT('',#350);
#352=CARTESIAN_POINT('',(-17.000000000000007,20.0,-17.500000000000000));
#353=DIRECTION('',(1.0,0.0,0.0));
#354=VECTOR('',#353,17.0);
#355=LINE('',#352,#354);
#356=EDGE_CURVE('',#320,#351,#355,.T.);
#357=ORIENTED_EDGE('',*,*,#356,.T.);
#358=CARTESIAN_POINT('',(-6.661338E-015,-20.0,-17.500000000000004));
#359=VERTEX_POINT('',#358);
#360=CARTESIAN_POINT('',(-6.661338E-015,-20.0,-17.500000000000004));
#361=DIRECTION('',(0.0,1.0,0.0));
#362=VECTOR('',#361,40.0);
#363=LINE('',#360,#362);
#364=EDGE_CURVE('',#359,#351,#363,.T.);
#365=ORIENTED_EDGE('',*,*,#364,.F.);
#366=CARTESIAN_POINT('',(-17.000000000000007,-20.0,-17.500000000000000));
#367=DIRECTION('',(1.0,0.0,0.0));
#368=VECTOR('',#367,17.0);
#369=LINE('',#366,#368);
#370=EDGE_CURVE('',#328,#359,#369,.T.);
#371=ORIENTED_EDGE('',*,*,#370,.F.);
#372=ORIENTED_EDGE('',*,*,#333,.T.);
#373=EDGE_LOOP('',(#357,#365,#371,#372));
#374=FACE_OUTER_BOUND('',#373,.T.);
#375=ORIENTED_EDGE('',*,*,#173,.T.);
#376=EDGE_LOOP('',(#375));
#377=FACE_BOUND('',#376,.T.);
#378=ADVANCED_FACE('',(#374,#377),#349,.T.);
#379=CARTESIAN_POINT('',(-6.661338E-015,-20.0,-17.500000000000004));
#380=DIRECTION('',(1.0,0.0,0.0));
#381=DIRECTION('',(0.0,0.0,-1.0));
#382=AXIS2_PLACEMENT_3D('',#379,#380,#381);
#383=PLANE('',#382);
#384=CARTESIAN_POINT('',(0.0,20.0,0.0));
#385=VERTEX_POINT('',#384);
#386=CARTESIAN_POINT('',(-6.661338E-015,20.0,-17.500000000000004));
#387=DIRECTION('',(0.0,0.0,1.0));
#388=VECTOR('',#387,17.500000000000004);
#389=LINE('',#386,#388);
#390=EDGE_CURVE('',#351,#385,#389,.T.);
#391=ORIENTED_EDGE('',*,*,#390,.T.);
#392=CARTESIAN_POINT('',(0.0,-20.0,0.0));
#393=VERTEX_POINT('',#392);
#394=CARTESIAN_POINT('',(0.0,-20.0,0.0));
#395=DIRECTION('',(0.0,1.0,0.0));
#396=VECTOR('',#395,40.0);
#397=LINE('',#394,#396);
#398=EDGE_CURVE('',#393,#385,#397,.T.);
#399=ORIENTED_EDGE('',*,*,#398,.F.);
#400=CARTESIAN_POINT('',(-6.661338E-015,-20.0,-17.500000000000004));
#401=DIRECTION('',(0.0,0.0,1.0));
#402=VECTOR('',#401,17.500000000000004);
#403=LINE('',#400,#402);
#404=EDGE_CURVE('',#359,#393,#403,.T.);
#405=ORIENTED_EDGE('',*,*,#404,.F.);
#406=ORIENTED_EDGE('',*,*,#364,.T.);
#407=EDGE_LOOP('',(#391,#399,#405,#406));
#408=FACE_OUTER_BOUND('',#407,.T.);
#409=ADVANCED_FACE('',(#408),#383,.T.);
#410=CARTESIAN_POINT('',(0.0,-20.0,0.0));
#411=DIRECTION('',(0.0,0.0,-1.0));
#412=DIRECTION('',(-1.0,0.0,0.0));
#413=AXIS2_PLACEMENT_3D('',#410,#411,#412);
#414=PLANE('',#413);
#415=CARTESIAN_POINT('',(0.0,20.0,0.0));
#416=DIRECTION('',(1.0,0.0,0.0));
#417=VECTOR('',#416,5.0);
#418=LINE('',#415,#417);
#419=EDGE_CURVE('',#385,#184,#418,.T.);
#420=ORIENTED_EDGE('',*,*,#419,.T.);
#421=ORIENTED_EDGE('',*,*,#213,.F.);
#422=CARTESIAN_POINT('',(0.0,-20.0,0.0));
#423=DIRECTION('',(1.0,0.0,0.0));
#424=VECTOR('',#423,5.0);
#425=LINE('',#422,#424);
#426=EDGE_CURVE('',#393,#202,#425,.T.);
#427=ORIENTED_EDGE('',*,*,#426,.F.);
#428=ORIENTED_EDGE('',*,*,#398,.T.);
#429=EDGE_LOOP('',(#420,#421,#427,#428));
#430=FACE_OUTER_BOUND('',#429,.T.);
#431=ADVANCED_FACE('',(#430),#414,.T.);
#432=CARTESIAN_POINT('',(-5.680000000000002,20.0,-4.029999999999999));
#433=DIRECTION('',(0.0,1.0,0.0));
#434=DIRECTION('',(0.0,0.0,1.0));
#435=AXIS2_PLACEMENT_3D('',#432,#433,#434);
#436=PLANE('',#435);
#437=ORIENTED_EDGE('',*,*,#191,.F.);
#438=ORIENTED_EDGE('',*,*,#419,.F.);
#439=ORIENTED_EDGE('',*,*,#390,.F.);
#440=ORIENTED_EDGE('',*,*,#356,.F.);
#441=ORIENTED_EDGE('',*,*,#325,.F.);
#442=ORIENTED_EDGE('',*,*,#291,.F.);
#443=ORIENTED_EDGE('',*,*,#260,.F.);
#444=ORIENTED_EDGE('',*,*,#229,.F.);
#445=EDGE_LOOP('',(#437,#438,#439,#440,#441,#442,#443,#444));
#446=FACE_OUTER_BOUND('',#445,.T.);
#447=ADVANCED_FACE('',(#446),#436,.T.);
#448=CARTESIAN_POINT('',(-5.680000000000003,-20.0,-4.030000000000001));
#449=DIRECTION('',(0.0,1.0,0.0));
#450=DIRECTION('',(0.0,0.0,1.0));
#451=AXIS2_PLACEMENT_3D('',#448,#449,#450);
#452=PLANE('',#451);
#453=ORIENTED_EDGE('',*,*,#426,.T.);
#454=ORIENTED_EDGE('',*,*,#207,.T.);
#455=ORIENTED_EDGE('',*,*,#243,.T.);
#456=ORIENTED_EDGE('',*,*,#274,.T.);
#457=ORIENTED_EDGE('',*,*,#305,.T.);
#458=ORIENTED_EDGE('',*,*,#339,.T.);
#459=ORIENTED_EDGE('',*,*,#370,.T.);
#460=ORIENTED_EDGE('',*,*,#404,.T.);
#461=EDGE_LOOP('',(#453,#454,#455,#456,#457,#458,#459,#460));
#462=FACE_OUTER_BOUND('',#461,.T.);
#463=ADVANCED_FACE('',(#462),#452,.F.);
#464=CLOSED_SHELL('',(#95,#136,#177,#217,#248,#279,#313,#344,#378,#409,#431,#447,#463));
#465=MANIFOLD_SOLID_BREP('T\X2\011B\X0\leso1',#464);
#466=COLOUR_RGB('Kov-AL-6061 (matn\X2\FFFD\X0\)',0.847059011459351,0.839215993881226,0.839215993881226);
#467=FILL_AREA_STYLE_COLOUR('Kov-AL-6061 (matn\X2\FFFD\X0\)',#466);
#468=FILL_AREA_STYLE('Kov-AL-6061 (matn\X2\FFFD\X0\)',(#467));
#469=SURFACE_STYLE_FILL_AREA(#468);
#470=SURFACE_SIDE_STYLE('Kov-AL-6061 (matn\X2\FFFD\X0\)',(#469));
#471=SURFACE_STYLE_USAGE(.BOTH.,#470);
#472=PRESENTATION_STYLE_ASSIGNMENT((#471));
#473=STYLED_ITEM('',(#472),#465);
#474=MECHANICAL_DESIGN_GEOMETRIC_PRESENTATION_REPRESENTATION('',(#473),#36);
#475=ADVANCED_BREP_SHAPE_REPRESENTATION('ABSR',(#465),#36);
#476=SHAPE_REPRESENTATION_RELATIONSHIP('SRR','None',#475,#41);
ENDSEC;
END-ISO-10303-21;
