                                                                        S      1
,,,14H730013.stp.ipt,22HAutodesk Inventor 2014,7Hunknown,32,38,7,99,15,,G      1
1.,2,2HMM,1,0.08,15H20151016.102034,0.01,10000.,5Hzeman,,11,0,;         G      2
     406       1                       1                        00000000D      1
     406                       1       3                               0D      2
     186       2                                                00000000D      3
     186            -187       1       0                               0D      4
     514       3                                                00010000D      5
     514                       1       1                               0D      6
     510       4                                                00010000D      7
     510            -187       1       1                               0D      8
     510       5                                                00010000D      9
     510            -187       1       1                               0D     10
     510       6                                                00010000D     11
     510            -187       1       1                               0D     12
     510       7                                                00010000D     13
     510            -187       1       1                               0D     14
     510       8                                                00010000D     15
     510            -187       1       1                               0D     16
     510       9                                                00010000D     17
     510            -187       1       1                               0D     18
     510      10                                                00010000D     19
     510            -187       1       1                               0D     20
     510      11                                                00010000D     21
     510            -187       1       1                               0D     22
     510      12                                                00010000D     23
     510            -187       1       1                               0D     24
     510      13                                                00010000D     25
     510            -187       1       1                               0D     26
     508      14                                                00010000D     27
     508                       1       1                               0D     28
     508      15                                                00010000D     29
     508                       1       1                               0D     30
     508      16                                                00010000D     31
     508                       1       1                               0D     32
     508      17                                                00010000D     33
     508                       1       1                               0D     34
     508      18                                                00010000D     35
     508                       1       1                               0D     36
     508      19                                                00010000D     37
     508                       1       1                               0D     38
     508      20                                                00010000D     39
     508                       1       1                               0D     40
     508      21                                                00010000D     41
     508                       1       1                               0D     42
     508      22                                                00010000D     43
     508                       1       1                               0D     44
     508      23                                                00010000D     45
     508                       1       1                               0D     46
     508      24                                                00010000D     47
     508                       1       1                               0D     48
     508      25                                                00010000D     49
     508                       1       1                               0D     50
     110      26                                                00010000D     51
     110       0               1       0                               0D     52
     110      27                                                00010000D     53
     110       0               1       0                               0D     54
     110      28                                                00010000D     55
     110       0               1       0                               0D     56
     110      29                                                00010000D     57
     110       0               1       0                               0D     58
     110      30                                                00010000D     59
     110       0               1       0                               0D     60
     110      31                                                00010000D     61
     110       0               1       0                               0D     62
     110      32                                                00010000D     63
     110       0               1       0                               0D     64
     110      33                                                00010000D     65
     110       0               1       0                               0D     66
     110      34                                                00010000D     67
     110       0               1       0                               0D     68
     110      35                                                00010000D     69
     110       0               1       0                               0D     70
     110      36                                                00010000D     71
     110       0               1       0                               0D     72
     110      37                                                00010000D     73
     110       0               1       0                               0D     74
     110      38                                                00010000D     75
     110       0               1       0                               0D     76
     110      39                                                00010000D     77
     110       0               1       0                               0D     78
     110      40                                                00010000D     79
     110       0               1       0                               0D     80
     110      41                                                00010000D     81
     110       0               1       0                               0D     82
     110      42                                                00010000D     83
     110       0               1       0                               0D     84
     110      43                                                00010000D     85
     110       0               1       0                               0D     86
     110      44                                                00010000D     87
     110       0               1       0                               0D     88
     110      45                                                00010000D     89
     110       0               1       0                               0D     90
     110      46                                                00010000D     91
     110       0               1       0                               0D     92
     110      47                                                00010000D     93
     110       0               1       0                               0D     94
     110      48                                                00010000D     95
     110       0               1       0                               0D     96
     110      49                                                00010000D     97
     110       0               1       0                               0D     98
     190      50                                                00010000D     99
     190       0    -187       1       1                               0D    100
     190      51                                                00010000D    101
     190       0    -187       1       1                               0D    102
     190      52                                                00010000D    103
     190       0    -187       1       1                               0D    104
     190      53                                                00010000D    105
     190       0    -187       1       1                               0D    106
     190      54                                                00010000D    107
     190       0    -187       1       1                               0D    108
     190      55                                                00010000D    109
     190       0    -187       1       1                               0D    110
     190      56                                                00010000D    111
     190       0    -187       1       1                               0D    112
     190      57                                                00010000D    113
     190       0    -187       1       1                               0D    114
     190      58                                                00010000D    115
     190       0    -187       1       1                               0D    116
     190      59                                                00010000D    117
     190       0    -187       1       1                               0D    118
     123      60                                                00010200D    119
     123       0               1       0                               0D    120
     123      61                                                00010200D    121
     123       0               1       0                               0D    122
     123      62                                                00010200D    123
     123       0               1       0                               0D    124
     123      63                                                00010200D    125
     123       0               1       0                               0D    126
     123      64                                                00010200D    127
     123       0               1       0                               0D    128
     123      65                                                00010200D    129
     123       0               1       0                               0D    130
     123      66                                                00010200D    131
     123       0               1       0                               0D    132
     123      67                                                00010200D    133
     123       0               1       0                               0D    134
     123      68                                                00010200D    135
     123       0               1       0                               0D    136
     123      69                                                00010200D    137
     123       0               1       0                               0D    138
     123      70                                                00010200D    139
     123       0               1       0                               0D    140
     123      71                                                00010200D    141
     123       0               1       0                               0D    142
     123      72                                                00010200D    143
     123       0               1       0                               0D    144
     123      73                                                00010200D    145
     123       0               1       0                               0D    146
     123      74                                                00010200D    147
     123       0               1       0                               0D    148
     123      75                                                00010200D    149
     123       0               1       0                               0D    150
     123      76                                                00010200D    151
     123       0               1       0                               0D    152
     123      77                                                00010200D    153
     123       0               1       0                               0D    154
     123      78                                                00010200D    155
     123       0               1       0                               0D    156
     123      79                                                00010200D    157
     123       0               1       0                               0D    158
     116      80                                                00010000D    159
     116       0               1       0                               0D    160
     116      81                                                00010000D    161
     116       0               1       0                               0D    162
     116      82                                                00010000D    163
     116       0               1       0                               0D    164
     116      83                                                00010000D    165
     116       0               1       0                               0D    166
     116      84                                                00010000D    167
     116       0               1       0                               0D    168
     116      85                                                00010000D    169
     116       0               1       0                               0D    170
     116      86                                                00010000D    171
     116       0               1       0                               0D    172
     116      87                                                00010000D    173
     116       0               1       0                               0D    174
     116      88                                                00010000D    175
     116       0               1       0                               0D    176
     116      89                                                00010000D    177
     116       0               1       0                               0D    178
     502      90                                                00010000D    179
     502                       3       1                               0D    180
     504      93                                                00010001D    181
     504                       7       1                               0D    182
     406     100                                                00000000D    183
     406                       1      15                               0D    184
     314     101                                                00000200D    185
     314                       1       0                               0D    186
     314     102                                                00000200D    187
     314                       1       0                               0D    188
406,2,0,10H730013.stp;                                                 1P      1
186,5,1,0,0,1,183;                                                     3P      2
514,10,7,1,9,1,11,1,13,1,15,1,17,1,19,1,21,1,23,1,25,1;                5P      3
510,99,1,1,27;                                                         7P      4
510,101,1,1,29;                                                        9P      5
510,103,1,1,31;                                                       11P      6
510,105,1,1,33;                                                       13P      7
510,107,1,1,35;                                                       15P      8
510,109,1,1,37;                                                       17P      9
510,111,1,1,39;                                                       19P     10
510,113,1,1,41;                                                       21P     11
510,115,2,1,43,45;                                                    23P     12
510,117,2,1,47,49;                                                    25P     13
508,4,0,181,1,1,0,0,181,2,0,0,0,181,3,0,0,0,181,4,1,0;                27P     14
508,4,0,181,5,1,0,0,181,6,0,0,0,181,7,0,0,0,181,2,1,0;                29P     15
508,4,0,181,8,1,0,0,181,9,0,0,0,181,10,0,0,0,181,11,1,0;              31P     16
508,4,0,181,12,1,0,0,181,13,0,0,0,181,14,0,0,0,181,9,1,0;             33P     17
508,4,0,181,15,1,0,0,181,16,0,0,0,181,17,0,0,0,181,6,1,0;             35P     18
508,4,0,181,18,1,0,0,181,4,0,0,0,181,19,0,0,0,181,16,1,0;             37P     19
508,4,0,181,20,1,0,0,181,21,0,0,0,181,22,0,0,0,181,13,1,0;            39P     20
508,4,0,181,23,1,0,0,181,11,0,0,0,181,24,0,0,0,181,21,1,0;            41P     21
508,4,0,181,20,0,0,0,181,12,0,0,0,181,8,0,0,0,181,23,0,0;             43P     22
508,4,0,181,15,0,0,0,181,5,0,0,0,181,1,0,0,0,181,18,0,0;              45P     23
508,4,0,181,22,1,0,0,181,24,1,0,0,181,10,1,0,0,181,14,1,0;            47P     24
508,4,0,181,17,1,0,0,181,19,1,0,0,181,3,1,0,0,181,7,1,0;              49P     25
110,-3.,3.,150.,-3.,-3.,150.;                                         51P     26
110,-3.,-3.,0.,-3.,-3.,150.;                                          53P     27
110,-3.,3.,0.,-3.,-3.,0.;                                             55P     28
110,-3.,3.,0.,-3.,3.,150.;                                            57P     29
110,-3.,-3.,150.,3.,-3.,150.;                                         59P     30
110,3.,-3.,0.,3.,-3.,150.;                                            61P     31
110,-3.,-3.,0.,3.,-3.,0.;                                             63P     32
110,-5.,5.,150.,5.,5.,150.;                                           65P     33
110,5.,5.,0.,5.,5.,150.;                                              67P     34
110,-5.,5.,0.,5.,5.,0.;                                               69P     35
110,-5.,5.,0.,-5.,5.,150.;                                            71P     36
110,5.,5.,150.,5.,-5.,150.;                                           73P     37
110,5.,-5.,0.,5.,-5.,150.;                                            75P     38
110,5.,5.,0.,5.,-5.,0.;                                               77P     39
110,3.,-3.,150.,3.,3.,150.;                                           79P     40
110,3.,3.,0.,3.,3.,150.;                                              81P     41
110,3.,-3.,0.,3.,3.,0.;                                               83P     42
110,3.,3.,150.,-3.,3.,150.;                                           85P     43
110,3.,3.,0.,-3.,3.,0.;                                               87P     44
110,5.,-5.,150.,-5.,-5.,150.;                                         89P     45
110,-5.,-5.,0.,-5.,-5.,150.;                                          91P     46
110,5.,-5.,0.,-5.,-5.,0.;                                             93P     47
110,-5.,-5.,150.,-5.,5.,150.;                                         95P     48
110,-5.,-5.,0.,-5.,5.,0.;                                             97P     49
190,159,119,121;                                                      99P     50
190,161,123,125;                                                     101P     51
190,163,127,129;                                                     103P     52
190,165,131,133;                                                     105P     53
190,167,135,137;                                                     107P     54
190,169,139,141;                                                     109P     55
190,171,143,145;                                                     111P     56
190,173,147,149;                                                     113P     57
190,175,151,153;                                                     115P     58
190,177,155,157;                                                     117P     59
123,1.,0.,0.;                                                        119P     60
123,0.,0.,1.;                                                        121P     61
123,0.,1.,0.;                                                        123P     62
123,0.,0.,-1.;                                                       125P     63
123,0.,1.,0.;                                                        127P     64
123,0.,0.,1.;                                                        129P     65
123,1.,0.,0.;                                                        131P     66
123,0.,0.,-1.;                                                       133P     67
123,-1.,-0.,-0.;                                                     135P     68
123,0.,0.,-1.;                                                       137P     69
123,-0.,-1.,-0.;                                                     139P     70
123,0.,0.,1.;                                                        141P     71
123,0.,-1.,0.;                                                       143P     72
123,0.,0.,-1.;                                                       145P     73
123,-1.,0.,0.;                                                       147P     74
123,0.,0.,1.;                                                        149P     75
123,0.,0.,1.;                                                        151P     76
123,1.,0.,0.;                                                        153P     77
123,-0.,-0.,-1.;                                                     155P     78
123,1.,0.,0.;                                                        157P     79
116,-3.,-3.,0.,0;                                                    159P     80
116,3.,-3.,0.,0;                                                     161P     81
116,-5.,5.,0.,0;                                                     163P     82
116,5.,5.,0.,0;                                                      165P     83
116,3.,3.,0.,0;                                                      167P     84
116,-3.,3.,0.,0;                                                     169P     85
116,5.,-5.,0.,0;                                                     171P     86
116,-5.,-5.,0.,0;                                                    173P     87
116,0.,0.,150.,0;                                                    175P     88
116,0.,0.,0.,0;                                                      177P     89
502,16,-3.,3.,150.,-3.,-3.,150.,-3.,-3.,0.,-3.,3.,0.,3.,-3.,         179P     90
150.,3.,-3.,0.,-5.,5.,150.,5.,5.,150.,5.,5.,0.,-5.,5.,0.,5.,-5.,     179P     91
150.,5.,-5.,0.,3.,3.,150.,3.,3.,0.,-5.,-5.,150.,-5.,-5.,0.;          179P     92
504,24,51,179,1,179,2,53,179,3,179,2,55,179,4,179,3,57,179,4,        181P     93
179,1,59,179,2,179,5,61,179,6,179,5,63,179,3,179,6,65,179,7,179,     181P     94
8,67,179,9,179,8,69,179,10,179,9,71,179,10,179,7,73,179,8,179,       181P     95
11,75,179,12,179,11,77,179,9,179,12,79,179,5,179,13,81,179,14,       181P     96
179,13,83,179,6,179,14,85,179,13,179,1,87,179,14,179,4,89,179,       181P     97
11,179,15,91,179,16,179,15,93,179,12,179,16,95,179,15,179,7,97,      181P     98
179,16,179,10;                                                       181P     99
406,1,8HTěleso1;                                                    183P    100
314,74.9019607843137,74.9019607843137,74.9019607843137,;             185P    101
314,84.7058823529412,83.921568627451,83.921568627451,;               187P    102
S      1G      2D    188P    102                                        T      1
