ISO-10303-21;
HEADER;
/* Generated by software containing ST-Developer
 * from STEP Tools, Inc. (www.steptools.com) 
 */

FILE_DESCRIPTION(
/* description */ ('TR 4HR 100x120x6'),
/* implementation_level */ '2;1');

FILE_NAME(
/* name */ 
'D:\\VaultPracovni\\Zak\X\E1zky\\P\X2\015900ED\X0\slu\X2\0161\X0\enstv
\X\ED k profil\X2\016F\X0\m\\Speci\X\E1ln\X\ED profily\\101012\\101012.
stp',
/* time_stamp */ '2020-01-07T11:54:24+01:00',
/* author */ ('\X2\0160\X0\pa\X2\010D\X0\ek'),
/* organization */ ('Alutec K&K'),
/* preprocessor_version */ 'ST-DEVELOPER v17',
/* originating_system */ 'Autodesk Inventor 2018',
/* authorisation */ '');

FILE_SCHEMA (('AUTOMOTIVE_DESIGN { 1 0 10303 214 3 1 1 }'));
ENDSEC;

DATA;
#10=MECHANICAL_DESIGN_GEOMETRIC_PRESENTATION_REPRESENTATION('',(#13),#605);
#11=SHAPE_REPRESENTATION_RELATIONSHIP('SRR','None',#612,#12);
#12=ADVANCED_BREP_SHAPE_REPRESENTATION('',(#14),#604);
#13=STYLED_ITEM('',(#621),#14);
#14=MANIFOLD_SOLID_BREP('T\X2\011B\X0\leso1',#347);
#15=FACE_BOUND('',#48,.T.);
#16=FACE_BOUND('',#64,.T.);
#17=PLANE('',#370);
#18=PLANE('',#371);
#19=PLANE('',#381);
#20=PLANE('',#388);
#21=PLANE('',#391);
#22=PLANE('',#394);
#23=PLANE('',#397);
#24=PLANE('',#398);
#25=PLANE('',#399);
#26=PLANE('',#400);
#27=FACE_OUTER_BOUND('',#45,.T.);
#28=FACE_OUTER_BOUND('',#46,.T.);
#29=FACE_OUTER_BOUND('',#47,.T.);
#30=FACE_OUTER_BOUND('',#49,.T.);
#31=FACE_OUTER_BOUND('',#50,.T.);
#32=FACE_OUTER_BOUND('',#51,.T.);
#33=FACE_OUTER_BOUND('',#52,.T.);
#34=FACE_OUTER_BOUND('',#53,.T.);
#35=FACE_OUTER_BOUND('',#54,.T.);
#36=FACE_OUTER_BOUND('',#55,.T.);
#37=FACE_OUTER_BOUND('',#56,.T.);
#38=FACE_OUTER_BOUND('',#57,.T.);
#39=FACE_OUTER_BOUND('',#58,.T.);
#40=FACE_OUTER_BOUND('',#59,.T.);
#41=FACE_OUTER_BOUND('',#60,.T.);
#42=FACE_OUTER_BOUND('',#61,.T.);
#43=FACE_OUTER_BOUND('',#62,.T.);
#44=FACE_OUTER_BOUND('',#63,.T.);
#45=EDGE_LOOP('',(#225,#226,#227,#228));
#46=EDGE_LOOP('',(#229,#230,#231,#232));
#47=EDGE_LOOP('',(#233,#234,#235,#236,#237,#238,#239,#240));
#48=EDGE_LOOP('',(#241,#242,#243,#244,#245,#246,#247,#248));
#49=EDGE_LOOP('',(#249,#250,#251,#252));
#50=EDGE_LOOP('',(#253,#254,#255,#256));
#51=EDGE_LOOP('',(#257,#258,#259,#260));
#52=EDGE_LOOP('',(#261,#262,#263,#264));
#53=EDGE_LOOP('',(#265,#266,#267,#268));
#54=EDGE_LOOP('',(#269,#270,#271,#272));
#55=EDGE_LOOP('',(#273,#274,#275,#276));
#56=EDGE_LOOP('',(#277,#278,#279,#280));
#57=EDGE_LOOP('',(#281,#282,#283,#284));
#58=EDGE_LOOP('',(#285,#286,#287,#288));
#59=EDGE_LOOP('',(#289,#290,#291,#292));
#60=EDGE_LOOP('',(#293,#294,#295,#296));
#61=EDGE_LOOP('',(#297,#298,#299,#300));
#62=EDGE_LOOP('',(#301,#302,#303,#304));
#63=EDGE_LOOP('',(#305,#306,#307,#308,#309,#310,#311,#312));
#64=EDGE_LOOP('',(#313,#314,#315,#316,#317,#318,#319,#320));
#65=LINE('',#509,#97);
#66=LINE('',#512,#98);
#67=LINE('',#515,#99);
#68=LINE('',#517,#100);
#69=LINE('',#518,#101);
#70=LINE('',#521,#102);
#71=LINE('',#525,#103);
#72=LINE('',#529,#104);
#73=LINE('',#533,#105);
#74=LINE('',#537,#106);
#75=LINE('',#541,#107);
#76=LINE('',#545,#108);
#77=LINE('',#549,#109);
#78=LINE('',#552,#110);
#79=LINE('',#555,#111);
#80=LINE('',#556,#112);
#81=LINE('',#560,#113);
#82=LINE('',#563,#114);
#83=LINE('',#569,#115);
#84=LINE('',#570,#116);
#85=LINE('',#573,#117);
#86=LINE('',#574,#118);
#87=LINE('',#579,#119);
#88=LINE('',#580,#120);
#89=LINE('',#582,#121);
#90=LINE('',#587,#122);
#91=LINE('',#588,#123);
#92=LINE('',#590,#124);
#93=LINE('',#594,#125);
#94=LINE('',#596,#126);
#95=LINE('',#598,#127);
#96=LINE('',#600,#128);
#97=VECTOR('',#407,10.);
#98=VECTOR('',#410,10.);
#99=VECTOR('',#413,10.);
#100=VECTOR('',#414,10.);
#101=VECTOR('',#415,10.);
#102=VECTOR('',#418,10.);
#103=VECTOR('',#421,10.);
#104=VECTOR('',#424,10.);
#105=VECTOR('',#427,10.);
#106=VECTOR('',#430,10.);
#107=VECTOR('',#433,10.);
#108=VECTOR('',#436,10.);
#109=VECTOR('',#441,10.);
#110=VECTOR('',#444,10.);
#111=VECTOR('',#447,10.);
#112=VECTOR('',#448,10.);
#113=VECTOR('',#453,10.);
#114=VECTOR('',#456,10.);
#115=VECTOR('',#463,10.);
#116=VECTOR('',#464,10.);
#117=VECTOR('',#467,10.);
#118=VECTOR('',#468,10.);
#119=VECTOR('',#473,10.);
#120=VECTOR('',#474,10.);
#121=VECTOR('',#477,10.);
#122=VECTOR('',#482,10.);
#123=VECTOR('',#483,10.);
#124=VECTOR('',#486,10.);
#125=VECTOR('',#491,10.);
#126=VECTOR('',#494,10.);
#127=VECTOR('',#497,10.);
#128=VECTOR('',#500,10.);
#129=CIRCLE('',#368,8.);
#130=CIRCLE('',#369,8.);
#131=CIRCLE('',#372,8.);
#132=CIRCLE('',#373,8.);
#133=CIRCLE('',#374,8.);
#134=CIRCLE('',#375,2.);
#135=CIRCLE('',#376,2.);
#136=CIRCLE('',#377,2.);
#137=CIRCLE('',#378,2.);
#138=CIRCLE('',#380,8.);
#139=CIRCLE('',#383,8.);
#140=CIRCLE('',#385,8.);
#141=CIRCLE('',#387,2.);
#142=CIRCLE('',#390,2.);
#143=CIRCLE('',#393,2.);
#144=CIRCLE('',#396,2.);
#145=VERTEX_POINT('',#505);
#146=VERTEX_POINT('',#506);
#147=VERTEX_POINT('',#508);
#148=VERTEX_POINT('',#510);
#149=VERTEX_POINT('',#514);
#150=VERTEX_POINT('',#516);
#151=VERTEX_POINT('',#520);
#152=VERTEX_POINT('',#522);
#153=VERTEX_POINT('',#524);
#154=VERTEX_POINT('',#526);
#155=VERTEX_POINT('',#528);
#156=VERTEX_POINT('',#531);
#157=VERTEX_POINT('',#532);
#158=VERTEX_POINT('',#534);
#159=VERTEX_POINT('',#536);
#160=VERTEX_POINT('',#538);
#161=VERTEX_POINT('',#540);
#162=VERTEX_POINT('',#542);
#163=VERTEX_POINT('',#544);
#164=VERTEX_POINT('',#548);
#165=VERTEX_POINT('',#550);
#166=VERTEX_POINT('',#554);
#167=VERTEX_POINT('',#558);
#168=VERTEX_POINT('',#562);
#169=VERTEX_POINT('',#566);
#170=VERTEX_POINT('',#567);
#171=VERTEX_POINT('',#572);
#172=VERTEX_POINT('',#576);
#173=VERTEX_POINT('',#577);
#174=VERTEX_POINT('',#584);
#175=VERTEX_POINT('',#585);
#176=VERTEX_POINT('',#592);
#177=EDGE_CURVE('',#145,#146,#129,.T.);
#178=EDGE_CURVE('',#146,#147,#65,.T.);
#179=EDGE_CURVE('',#147,#148,#130,.T.);
#180=EDGE_CURVE('',#148,#145,#66,.T.);
#181=EDGE_CURVE('',#149,#146,#67,.T.);
#182=EDGE_CURVE('',#150,#149,#68,.T.);
#183=EDGE_CURVE('',#150,#147,#69,.T.);
#184=EDGE_CURVE('',#145,#151,#70,.T.);
#185=EDGE_CURVE('',#152,#151,#131,.T.);
#186=EDGE_CURVE('',#152,#153,#71,.T.);
#187=EDGE_CURVE('',#154,#153,#132,.T.);
#188=EDGE_CURVE('',#154,#155,#72,.T.);
#189=EDGE_CURVE('',#149,#155,#133,.T.);
#190=EDGE_CURVE('',#156,#157,#73,.T.);
#191=EDGE_CURVE('',#158,#157,#134,.T.);
#192=EDGE_CURVE('',#158,#159,#74,.T.);
#193=EDGE_CURVE('',#160,#159,#135,.T.);
#194=EDGE_CURVE('',#160,#161,#75,.T.);
#195=EDGE_CURVE('',#162,#161,#136,.T.);
#196=EDGE_CURVE('',#162,#163,#76,.T.);
#197=EDGE_CURVE('',#156,#163,#137,.T.);
#198=EDGE_CURVE('',#151,#164,#77,.T.);
#199=EDGE_CURVE('',#164,#165,#138,.T.);
#200=EDGE_CURVE('',#165,#152,#78,.T.);
#201=EDGE_CURVE('',#165,#166,#79,.T.);
#202=EDGE_CURVE('',#153,#166,#80,.T.);
#203=EDGE_CURVE('',#166,#167,#139,.T.);
#204=EDGE_CURVE('',#167,#154,#81,.T.);
#205=EDGE_CURVE('',#155,#168,#82,.T.);
#206=EDGE_CURVE('',#168,#150,#140,.T.);
#207=EDGE_CURVE('',#169,#170,#141,.T.);
#208=EDGE_CURVE('',#170,#160,#83,.T.);
#209=EDGE_CURVE('',#159,#169,#84,.T.);
#210=EDGE_CURVE('',#171,#170,#85,.T.);
#211=EDGE_CURVE('',#161,#171,#86,.T.);
#212=EDGE_CURVE('',#172,#173,#142,.T.);
#213=EDGE_CURVE('',#173,#158,#87,.T.);
#214=EDGE_CURVE('',#157,#172,#88,.T.);
#215=EDGE_CURVE('',#169,#173,#89,.T.);
#216=EDGE_CURVE('',#174,#175,#143,.T.);
#217=EDGE_CURVE('',#175,#156,#90,.T.);
#218=EDGE_CURVE('',#163,#174,#91,.T.);
#219=EDGE_CURVE('',#172,#175,#92,.T.);
#220=EDGE_CURVE('',#171,#176,#144,.T.);
#221=EDGE_CURVE('',#176,#162,#93,.T.);
#222=EDGE_CURVE('',#174,#176,#94,.T.);
#223=EDGE_CURVE('',#167,#168,#95,.T.);
#224=EDGE_CURVE('',#148,#164,#96,.T.);
#225=ORIENTED_EDGE('',*,*,#177,.T.);
#226=ORIENTED_EDGE('',*,*,#178,.T.);
#227=ORIENTED_EDGE('',*,*,#179,.T.);
#228=ORIENTED_EDGE('',*,*,#180,.T.);
#229=ORIENTED_EDGE('',*,*,#178,.F.);
#230=ORIENTED_EDGE('',*,*,#181,.F.);
#231=ORIENTED_EDGE('',*,*,#182,.F.);
#232=ORIENTED_EDGE('',*,*,#183,.T.);
#233=ORIENTED_EDGE('',*,*,#177,.F.);
#234=ORIENTED_EDGE('',*,*,#184,.T.);
#235=ORIENTED_EDGE('',*,*,#185,.F.);
#236=ORIENTED_EDGE('',*,*,#186,.T.);
#237=ORIENTED_EDGE('',*,*,#187,.F.);
#238=ORIENTED_EDGE('',*,*,#188,.T.);
#239=ORIENTED_EDGE('',*,*,#189,.F.);
#240=ORIENTED_EDGE('',*,*,#181,.T.);
#241=ORIENTED_EDGE('',*,*,#190,.T.);
#242=ORIENTED_EDGE('',*,*,#191,.F.);
#243=ORIENTED_EDGE('',*,*,#192,.T.);
#244=ORIENTED_EDGE('',*,*,#193,.F.);
#245=ORIENTED_EDGE('',*,*,#194,.T.);
#246=ORIENTED_EDGE('',*,*,#195,.F.);
#247=ORIENTED_EDGE('',*,*,#196,.T.);
#248=ORIENTED_EDGE('',*,*,#197,.F.);
#249=ORIENTED_EDGE('',*,*,#185,.T.);
#250=ORIENTED_EDGE('',*,*,#198,.T.);
#251=ORIENTED_EDGE('',*,*,#199,.T.);
#252=ORIENTED_EDGE('',*,*,#200,.T.);
#253=ORIENTED_EDGE('',*,*,#200,.F.);
#254=ORIENTED_EDGE('',*,*,#201,.T.);
#255=ORIENTED_EDGE('',*,*,#202,.F.);
#256=ORIENTED_EDGE('',*,*,#186,.F.);
#257=ORIENTED_EDGE('',*,*,#187,.T.);
#258=ORIENTED_EDGE('',*,*,#202,.T.);
#259=ORIENTED_EDGE('',*,*,#203,.T.);
#260=ORIENTED_EDGE('',*,*,#204,.T.);
#261=ORIENTED_EDGE('',*,*,#189,.T.);
#262=ORIENTED_EDGE('',*,*,#205,.T.);
#263=ORIENTED_EDGE('',*,*,#206,.T.);
#264=ORIENTED_EDGE('',*,*,#182,.T.);
#265=ORIENTED_EDGE('',*,*,#207,.T.);
#266=ORIENTED_EDGE('',*,*,#208,.T.);
#267=ORIENTED_EDGE('',*,*,#193,.T.);
#268=ORIENTED_EDGE('',*,*,#209,.T.);
#269=ORIENTED_EDGE('',*,*,#208,.F.);
#270=ORIENTED_EDGE('',*,*,#210,.F.);
#271=ORIENTED_EDGE('',*,*,#211,.F.);
#272=ORIENTED_EDGE('',*,*,#194,.F.);
#273=ORIENTED_EDGE('',*,*,#212,.T.);
#274=ORIENTED_EDGE('',*,*,#213,.T.);
#275=ORIENTED_EDGE('',*,*,#191,.T.);
#276=ORIENTED_EDGE('',*,*,#214,.T.);
#277=ORIENTED_EDGE('',*,*,#209,.F.);
#278=ORIENTED_EDGE('',*,*,#192,.F.);
#279=ORIENTED_EDGE('',*,*,#213,.F.);
#280=ORIENTED_EDGE('',*,*,#215,.F.);
#281=ORIENTED_EDGE('',*,*,#216,.T.);
#282=ORIENTED_EDGE('',*,*,#217,.T.);
#283=ORIENTED_EDGE('',*,*,#197,.T.);
#284=ORIENTED_EDGE('',*,*,#218,.T.);
#285=ORIENTED_EDGE('',*,*,#214,.F.);
#286=ORIENTED_EDGE('',*,*,#190,.F.);
#287=ORIENTED_EDGE('',*,*,#217,.F.);
#288=ORIENTED_EDGE('',*,*,#219,.F.);
#289=ORIENTED_EDGE('',*,*,#220,.T.);
#290=ORIENTED_EDGE('',*,*,#221,.T.);
#291=ORIENTED_EDGE('',*,*,#195,.T.);
#292=ORIENTED_EDGE('',*,*,#211,.T.);
#293=ORIENTED_EDGE('',*,*,#218,.F.);
#294=ORIENTED_EDGE('',*,*,#196,.F.);
#295=ORIENTED_EDGE('',*,*,#221,.F.);
#296=ORIENTED_EDGE('',*,*,#222,.F.);
#297=ORIENTED_EDGE('',*,*,#204,.F.);
#298=ORIENTED_EDGE('',*,*,#223,.T.);
#299=ORIENTED_EDGE('',*,*,#205,.F.);
#300=ORIENTED_EDGE('',*,*,#188,.F.);
#301=ORIENTED_EDGE('',*,*,#180,.F.);
#302=ORIENTED_EDGE('',*,*,#224,.T.);
#303=ORIENTED_EDGE('',*,*,#198,.F.);
#304=ORIENTED_EDGE('',*,*,#184,.F.);
#305=ORIENTED_EDGE('',*,*,#179,.F.);
#306=ORIENTED_EDGE('',*,*,#183,.F.);
#307=ORIENTED_EDGE('',*,*,#206,.F.);
#308=ORIENTED_EDGE('',*,*,#223,.F.);
#309=ORIENTED_EDGE('',*,*,#203,.F.);
#310=ORIENTED_EDGE('',*,*,#201,.F.);
#311=ORIENTED_EDGE('',*,*,#199,.F.);
#312=ORIENTED_EDGE('',*,*,#224,.F.);
#313=ORIENTED_EDGE('',*,*,#219,.T.);
#314=ORIENTED_EDGE('',*,*,#216,.F.);
#315=ORIENTED_EDGE('',*,*,#222,.T.);
#316=ORIENTED_EDGE('',*,*,#220,.F.);
#317=ORIENTED_EDGE('',*,*,#210,.T.);
#318=ORIENTED_EDGE('',*,*,#207,.F.);
#319=ORIENTED_EDGE('',*,*,#215,.T.);
#320=ORIENTED_EDGE('',*,*,#212,.F.);
#321=CYLINDRICAL_SURFACE('',#367,8.);
#322=CYLINDRICAL_SURFACE('',#379,8.);
#323=CYLINDRICAL_SURFACE('',#382,8.);
#324=CYLINDRICAL_SURFACE('',#384,8.);
#325=CYLINDRICAL_SURFACE('',#386,2.);
#326=CYLINDRICAL_SURFACE('',#389,2.);
#327=CYLINDRICAL_SURFACE('',#392,2.);
#328=CYLINDRICAL_SURFACE('',#395,2.);
#329=ADVANCED_FACE('',(#27),#321,.T.);
#330=ADVANCED_FACE('',(#28),#17,.T.);
#331=ADVANCED_FACE('',(#29,#15),#18,.T.);
#332=ADVANCED_FACE('',(#30),#322,.T.);
#333=ADVANCED_FACE('',(#31),#19,.T.);
#334=ADVANCED_FACE('',(#32),#323,.T.);
#335=ADVANCED_FACE('',(#33),#324,.T.);
#336=ADVANCED_FACE('',(#34),#325,.F.);
#337=ADVANCED_FACE('',(#35),#20,.F.);
#338=ADVANCED_FACE('',(#36),#326,.F.);
#339=ADVANCED_FACE('',(#37),#21,.F.);
#340=ADVANCED_FACE('',(#38),#327,.F.);
#341=ADVANCED_FACE('',(#39),#22,.F.);
#342=ADVANCED_FACE('',(#40),#328,.F.);
#343=ADVANCED_FACE('',(#41),#23,.F.);
#344=ADVANCED_FACE('',(#42),#24,.T.);
#345=ADVANCED_FACE('',(#43),#25,.T.);
#346=ADVANCED_FACE('',(#44,#16),#26,.F.);
#347=CLOSED_SHELL('',(#329,#330,#331,#332,#333,#334,#335,#336,#337,#338,
#339,#340,#341,#342,#343,#344,#345,#346));
#348=DERIVED_UNIT_ELEMENT(#350,1.);
#349=DERIVED_UNIT_ELEMENT(#607,3.);
#350=(
MASS_UNIT()
NAMED_UNIT(*)
SI_UNIT($,.GRAM.)
);
#351=DERIVED_UNIT((#348,#349));
#352=MEASURE_REPRESENTATION_ITEM('density measure',
POSITIVE_RATIO_MEASURE(2.71),#351);
#353=PROPERTY_DEFINITION_REPRESENTATION(#358,#355);
#354=PROPERTY_DEFINITION_REPRESENTATION(#359,#356);
#355=REPRESENTATION('material name',(#357),#604);
#356=REPRESENTATION('density',(#352),#604);
#357=DESCRIPTIVE_REPRESENTATION_ITEM('Hlin\X\EDk - 6061',
'Hlin\X\EDk - 6061');
#358=PROPERTY_DEFINITION('material property','material name',#614);
#359=PROPERTY_DEFINITION('material property','density of part',#614);
#360=DATE_TIME_ROLE('creation_date');
#361=APPLIED_DATE_AND_TIME_ASSIGNMENT(#362,#360,(#614));
#362=DATE_AND_TIME(#363,#364);
#363=CALENDAR_DATE(2017,6,6);
#364=LOCAL_TIME(5,39,56.,#365);
#365=COORDINATED_UNIVERSAL_TIME_OFFSET(0,0,.BEHIND.);
#366=AXIS2_PLACEMENT_3D('placement',#503,#401,#402);
#367=AXIS2_PLACEMENT_3D('',#504,#403,#404);
#368=AXIS2_PLACEMENT_3D('',#507,#405,#406);
#369=AXIS2_PLACEMENT_3D('',#511,#408,#409);
#370=AXIS2_PLACEMENT_3D('',#513,#411,#412);
#371=AXIS2_PLACEMENT_3D('',#519,#416,#417);
#372=AXIS2_PLACEMENT_3D('',#523,#419,#420);
#373=AXIS2_PLACEMENT_3D('',#527,#422,#423);
#374=AXIS2_PLACEMENT_3D('',#530,#425,#426);
#375=AXIS2_PLACEMENT_3D('',#535,#428,#429);
#376=AXIS2_PLACEMENT_3D('',#539,#431,#432);
#377=AXIS2_PLACEMENT_3D('',#543,#434,#435);
#378=AXIS2_PLACEMENT_3D('',#546,#437,#438);
#379=AXIS2_PLACEMENT_3D('',#547,#439,#440);
#380=AXIS2_PLACEMENT_3D('',#551,#442,#443);
#381=AXIS2_PLACEMENT_3D('',#553,#445,#446);
#382=AXIS2_PLACEMENT_3D('',#557,#449,#450);
#383=AXIS2_PLACEMENT_3D('',#559,#451,#452);
#384=AXIS2_PLACEMENT_3D('',#561,#454,#455);
#385=AXIS2_PLACEMENT_3D('',#564,#457,#458);
#386=AXIS2_PLACEMENT_3D('',#565,#459,#460);
#387=AXIS2_PLACEMENT_3D('',#568,#461,#462);
#388=AXIS2_PLACEMENT_3D('',#571,#465,#466);
#389=AXIS2_PLACEMENT_3D('',#575,#469,#470);
#390=AXIS2_PLACEMENT_3D('',#578,#471,#472);
#391=AXIS2_PLACEMENT_3D('',#581,#475,#476);
#392=AXIS2_PLACEMENT_3D('',#583,#478,#479);
#393=AXIS2_PLACEMENT_3D('',#586,#480,#481);
#394=AXIS2_PLACEMENT_3D('',#589,#484,#485);
#395=AXIS2_PLACEMENT_3D('',#591,#487,#488);
#396=AXIS2_PLACEMENT_3D('',#593,#489,#490);
#397=AXIS2_PLACEMENT_3D('',#595,#492,#493);
#398=AXIS2_PLACEMENT_3D('',#597,#495,#496);
#399=AXIS2_PLACEMENT_3D('',#599,#498,#499);
#400=AXIS2_PLACEMENT_3D('',#601,#501,#502);
#401=DIRECTION('axis',(0.,0.,1.));
#402=DIRECTION('refdir',(1.,0.,0.));
#403=DIRECTION('center_axis',(0.,0.,1.));
#404=DIRECTION('ref_axis',(-0.707106781186548,-0.707106781186548,0.));
#405=DIRECTION('center_axis',(0.,0.,-1.));
#406=DIRECTION('ref_axis',(-0.707106781186548,-0.707106781186548,0.));
#407=DIRECTION('',(0.,0.,-1.));
#408=DIRECTION('center_axis',(0.,0.,1.));
#409=DIRECTION('ref_axis',(-0.707106781186548,-0.707106781186548,0.));
#410=DIRECTION('',(0.,0.,1.));
#411=DIRECTION('center_axis',(-1.,1.48029736616688E-16,0.));
#412=DIRECTION('ref_axis',(-1.48029736616688E-16,-1.,0.));
#413=DIRECTION('',(-1.48029736616688E-16,-1.,0.));
#414=DIRECTION('',(0.,0.,1.));
#415=DIRECTION('',(-1.48029736616688E-16,-1.,0.));
#416=DIRECTION('center_axis',(0.,0.,1.));
#417=DIRECTION('ref_axis',(1.,0.,0.));
#418=DIRECTION('',(1.,8.88178419700125E-17,0.));
#419=DIRECTION('center_axis',(0.,0.,-1.));
#420=DIRECTION('ref_axis',(0.707106781186548,-0.707106781186548,0.));
#421=DIRECTION('',(0.,1.,0.));
#422=DIRECTION('center_axis',(0.,0.,-1.));
#423=DIRECTION('ref_axis',(0.707106781186548,0.707106781186547,0.));
#424=DIRECTION('',(-1.,-1.77635683940025E-16,0.));
#425=DIRECTION('center_axis',(0.,0.,-1.));
#426=DIRECTION('ref_axis',(-0.707106781186548,0.707106781186548,0.));
#427=DIRECTION('',(-8.22387425648264E-17,-1.,0.));
#428=DIRECTION('center_axis',(0.,0.,1.));
#429=DIRECTION('ref_axis',(0.707106781186548,-0.707106781186548,0.));
#430=DIRECTION('',(-1.,-1.00929365875014E-16,0.));
#431=DIRECTION('center_axis',(0.,0.,1.));
#432=DIRECTION('ref_axis',(-0.707106781186544,-0.707106781186551,0.));
#433=DIRECTION('',(-1.64477485129653E-16,1.,0.));
#434=DIRECTION('center_axis',(0.,0.,1.));
#435=DIRECTION('ref_axis',(-0.707106781186544,0.707106781186551,0.));
#436=DIRECTION('',(1.,1.00929365875014E-16,0.));
#437=DIRECTION('center_axis',(0.,0.,1.));
#438=DIRECTION('ref_axis',(0.707106781186551,0.707106781186544,0.));
#439=DIRECTION('center_axis',(0.,0.,1.));
#440=DIRECTION('ref_axis',(0.707106781186548,-0.707106781186548,0.));
#441=DIRECTION('',(0.,0.,-1.));
#442=DIRECTION('center_axis',(0.,0.,1.));
#443=DIRECTION('ref_axis',(0.707106781186548,-0.707106781186548,0.));
#444=DIRECTION('',(0.,0.,1.));
#445=DIRECTION('center_axis',(1.,0.,0.));
#446=DIRECTION('ref_axis',(0.,1.,0.));
#447=DIRECTION('',(0.,1.,0.));
#448=DIRECTION('',(0.,0.,-1.));
#449=DIRECTION('center_axis',(0.,0.,1.));
#450=DIRECTION('ref_axis',(0.707106781186548,0.707106781186547,0.));
#451=DIRECTION('center_axis',(0.,0.,1.));
#452=DIRECTION('ref_axis',(0.707106781186548,0.707106781186547,0.));
#453=DIRECTION('',(0.,0.,1.));
#454=DIRECTION('center_axis',(0.,0.,1.));
#455=DIRECTION('ref_axis',(-0.707106781186548,0.707106781186548,0.));
#456=DIRECTION('',(0.,0.,-1.));
#457=DIRECTION('center_axis',(0.,0.,1.));
#458=DIRECTION('ref_axis',(-0.707106781186548,0.707106781186548,0.));
#459=DIRECTION('center_axis',(0.,0.,1.));
#460=DIRECTION('ref_axis',(-0.707106781186544,-0.707106781186551,0.));
#461=DIRECTION('center_axis',(0.,0.,-1.));
#462=DIRECTION('ref_axis',(-0.707106781186544,-0.707106781186551,0.));
#463=DIRECTION('',(0.,0.,1.));
#464=DIRECTION('',(0.,0.,-1.));
#465=DIRECTION('center_axis',(-1.,-1.64477485129653E-16,0.));
#466=DIRECTION('ref_axis',(1.64477485129653E-16,-1.,0.));
#467=DIRECTION('',(1.64477485129653E-16,-1.,0.));
#468=DIRECTION('',(0.,0.,-1.));
#469=DIRECTION('center_axis',(0.,0.,1.));
#470=DIRECTION('ref_axis',(0.707106781186548,-0.707106781186548,0.));
#471=DIRECTION('center_axis',(0.,0.,-1.));
#472=DIRECTION('ref_axis',(0.707106781186548,-0.707106781186548,0.));
#473=DIRECTION('',(0.,0.,1.));
#474=DIRECTION('',(0.,0.,-1.));
#475=DIRECTION('center_axis',(1.00929365875014E-16,-1.,0.));
#476=DIRECTION('ref_axis',(1.,1.00929365875014E-16,0.));
#477=DIRECTION('',(1.,1.00929365875014E-16,0.));
#478=DIRECTION('center_axis',(0.,0.,1.));
#479=DIRECTION('ref_axis',(0.707106781186551,0.707106781186544,0.));
#480=DIRECTION('center_axis',(0.,0.,-1.));
#481=DIRECTION('ref_axis',(0.707106781186551,0.707106781186544,0.));
#482=DIRECTION('',(0.,0.,1.));
#483=DIRECTION('',(0.,0.,-1.));
#484=DIRECTION('center_axis',(1.,-8.22387425648264E-17,0.));
#485=DIRECTION('ref_axis',(8.22387425648264E-17,1.,0.));
#486=DIRECTION('',(8.22387425648264E-17,1.,0.));
#487=DIRECTION('center_axis',(0.,0.,1.));
#488=DIRECTION('ref_axis',(-0.707106781186544,0.707106781186551,0.));
#489=DIRECTION('center_axis',(0.,0.,-1.));
#490=DIRECTION('ref_axis',(-0.707106781186544,0.707106781186551,0.));
#491=DIRECTION('',(0.,0.,1.));
#492=DIRECTION('center_axis',(-1.00929365875014E-16,1.,0.));
#493=DIRECTION('ref_axis',(-1.,-1.00929365875014E-16,0.));
#494=DIRECTION('',(-1.,-1.00929365875014E-16,0.));
#495=DIRECTION('center_axis',(-1.77635683940025E-16,1.,0.));
#496=DIRECTION('ref_axis',(-1.,-1.77635683940025E-16,0.));
#497=DIRECTION('',(-1.,-1.77635683940025E-16,0.));
#498=DIRECTION('center_axis',(8.88178419700125E-17,-1.,0.));
#499=DIRECTION('ref_axis',(1.,8.88178419700125E-17,0.));
#500=DIRECTION('',(1.,8.88178419700125E-17,0.));
#501=DIRECTION('center_axis',(0.,0.,1.));
#502=DIRECTION('ref_axis',(1.,0.,0.));
#503=CARTESIAN_POINT('',(0.,0.,0.));
#504=CARTESIAN_POINT('Origin',(-42.,-52.,0.));
#505=CARTESIAN_POINT('',(-42.,-60.,100.));
#506=CARTESIAN_POINT('',(-50.,-52.,100.));
#507=CARTESIAN_POINT('Origin',(-42.,-52.,100.));
#508=CARTESIAN_POINT('',(-50.,-52.,0.));
#509=CARTESIAN_POINT('',(-50.,-52.,0.));
#510=CARTESIAN_POINT('',(-42.,-60.,0.));
#511=CARTESIAN_POINT('Origin',(-42.,-52.,0.));
#512=CARTESIAN_POINT('',(-42.,-60.,0.));
#513=CARTESIAN_POINT('Origin',(-50.,60.,0.));
#514=CARTESIAN_POINT('',(-50.,52.,100.));
#515=CARTESIAN_POINT('',(-50.,60.,100.));
#516=CARTESIAN_POINT('',(-50.,52.,0.));
#517=CARTESIAN_POINT('',(-50.,52.,0.));
#518=CARTESIAN_POINT('',(-50.,60.,0.));
#519=CARTESIAN_POINT('Origin',(-1.77635683940025E-14,-1.77635683940025E-14,
100.));
#520=CARTESIAN_POINT('',(42.,-60.,100.));
#521=CARTESIAN_POINT('',(-50.,-60.,100.));
#522=CARTESIAN_POINT('',(50.,-52.,100.));
#523=CARTESIAN_POINT('Origin',(42.,-52.,100.));
#524=CARTESIAN_POINT('',(50.,52.,100.));
#525=CARTESIAN_POINT('',(50.,-60.,100.));
#526=CARTESIAN_POINT('',(42.,60.,100.));
#527=CARTESIAN_POINT('Origin',(42.,52.,100.));
#528=CARTESIAN_POINT('',(-42.,60.,100.));
#529=CARTESIAN_POINT('',(50.,60.,100.));
#530=CARTESIAN_POINT('Origin',(-42.,52.,100.));
#531=CARTESIAN_POINT('',(44.,52.,100.));
#532=CARTESIAN_POINT('',(44.,-52.,100.));
#533=CARTESIAN_POINT('',(44.,-27.,100.));
#534=CARTESIAN_POINT('',(42.,-54.,100.));
#535=CARTESIAN_POINT('Origin',(42.,-52.,100.));
#536=CARTESIAN_POINT('',(-42.,-54.,100.));
#537=CARTESIAN_POINT('',(-22.,-54.,100.));
#538=CARTESIAN_POINT('',(-44.,-52.,100.));
#539=CARTESIAN_POINT('Origin',(-42.,-52.,100.));
#540=CARTESIAN_POINT('',(-44.,52.,100.));
#541=CARTESIAN_POINT('',(-44.,27.,100.));
#542=CARTESIAN_POINT('',(-42.,54.,100.));
#543=CARTESIAN_POINT('Origin',(-42.,52.,100.));
#544=CARTESIAN_POINT('',(42.,54.,100.));
#545=CARTESIAN_POINT('',(22.,54.,100.));
#546=CARTESIAN_POINT('Origin',(42.,52.,100.));
#547=CARTESIAN_POINT('Origin',(42.,-52.,0.));
#548=CARTESIAN_POINT('',(42.,-60.,0.));
#549=CARTESIAN_POINT('',(42.,-60.,0.));
#550=CARTESIAN_POINT('',(50.,-52.,0.));
#551=CARTESIAN_POINT('Origin',(42.,-52.,0.));
#552=CARTESIAN_POINT('',(50.,-52.,0.));
#553=CARTESIAN_POINT('Origin',(50.,-60.,0.));
#554=CARTESIAN_POINT('',(50.,52.,0.));
#555=CARTESIAN_POINT('',(50.,-60.,0.));
#556=CARTESIAN_POINT('',(50.,52.,0.));
#557=CARTESIAN_POINT('Origin',(42.,52.,0.));
#558=CARTESIAN_POINT('',(42.,60.,0.));
#559=CARTESIAN_POINT('Origin',(42.,52.,0.));
#560=CARTESIAN_POINT('',(42.,60.,0.));
#561=CARTESIAN_POINT('Origin',(-42.,52.,0.));
#562=CARTESIAN_POINT('',(-42.,60.,0.));
#563=CARTESIAN_POINT('',(-42.,60.,0.));
#564=CARTESIAN_POINT('Origin',(-42.,52.,0.));
#565=CARTESIAN_POINT('Origin',(-42.,-52.,0.));
#566=CARTESIAN_POINT('',(-42.,-54.,0.));
#567=CARTESIAN_POINT('',(-44.,-52.,0.));
#568=CARTESIAN_POINT('Origin',(-42.,-52.,0.));
#569=CARTESIAN_POINT('',(-44.,-52.,0.));
#570=CARTESIAN_POINT('',(-42.,-54.,0.));
#571=CARTESIAN_POINT('Origin',(-44.,54.,0.));
#572=CARTESIAN_POINT('',(-44.,52.,0.));
#573=CARTESIAN_POINT('',(-44.,27.,0.));
#574=CARTESIAN_POINT('',(-44.,52.,0.));
#575=CARTESIAN_POINT('Origin',(42.,-52.,0.));
#576=CARTESIAN_POINT('',(44.,-52.,0.));
#577=CARTESIAN_POINT('',(42.,-54.,0.));
#578=CARTESIAN_POINT('Origin',(42.,-52.,0.));
#579=CARTESIAN_POINT('',(42.,-54.,0.));
#580=CARTESIAN_POINT('',(44.,-52.,0.));
#581=CARTESIAN_POINT('Origin',(-44.,-54.,0.));
#582=CARTESIAN_POINT('',(-22.,-54.,0.));
#583=CARTESIAN_POINT('Origin',(42.,52.,0.));
#584=CARTESIAN_POINT('',(42.,54.,0.));
#585=CARTESIAN_POINT('',(44.,52.,0.));
#586=CARTESIAN_POINT('Origin',(42.,52.,0.));
#587=CARTESIAN_POINT('',(44.,52.,0.));
#588=CARTESIAN_POINT('',(42.,54.,0.));
#589=CARTESIAN_POINT('Origin',(44.,-54.,0.));
#590=CARTESIAN_POINT('',(44.,-27.,0.));
#591=CARTESIAN_POINT('Origin',(-42.,52.,0.));
#592=CARTESIAN_POINT('',(-42.,54.,0.));
#593=CARTESIAN_POINT('Origin',(-42.,52.,0.));
#594=CARTESIAN_POINT('',(-42.,54.,0.));
#595=CARTESIAN_POINT('Origin',(44.,54.,0.));
#596=CARTESIAN_POINT('',(22.,54.,0.));
#597=CARTESIAN_POINT('Origin',(50.,60.,0.));
#598=CARTESIAN_POINT('',(50.,60.,0.));
#599=CARTESIAN_POINT('Origin',(-50.,-60.,0.));
#600=CARTESIAN_POINT('',(-50.,-60.,0.));
#601=CARTESIAN_POINT('Origin',(-1.4130111222502E-14,-1.4533828686002E-14,
0.));
#602=UNCERTAINTY_MEASURE_WITH_UNIT(LENGTH_MEASURE(0.01),#606,
'DISTANCE_ACCURACY_VALUE',
'Maximum model space distance between geometric entities at asserted c
onnectivities');
#603=UNCERTAINTY_MEASURE_WITH_UNIT(LENGTH_MEASURE(0.01),#606,
'DISTANCE_ACCURACY_VALUE',
'Maximum model space distance between geometric entities at asserted c
onnectivities');
#604=(
GEOMETRIC_REPRESENTATION_CONTEXT(3)
GLOBAL_UNCERTAINTY_ASSIGNED_CONTEXT((#602))
GLOBAL_UNIT_ASSIGNED_CONTEXT((#606,#609,#608))
REPRESENTATION_CONTEXT('','3D')
);
#605=(
GEOMETRIC_REPRESENTATION_CONTEXT(3)
GLOBAL_UNCERTAINTY_ASSIGNED_CONTEXT((#603))
GLOBAL_UNIT_ASSIGNED_CONTEXT((#606,#609,#608))
REPRESENTATION_CONTEXT('','3D')
);
#606=(
LENGTH_UNIT()
NAMED_UNIT(*)
SI_UNIT(.MILLI.,.METRE.)
);
#607=(
LENGTH_UNIT()
NAMED_UNIT(*)
SI_UNIT(.CENTI.,.METRE.)
);
#608=(
NAMED_UNIT(*)
SI_UNIT($,.STERADIAN.)
SOLID_ANGLE_UNIT()
);
#609=(
NAMED_UNIT(*)
PLANE_ANGLE_UNIT()
SI_UNIT($,.RADIAN.)
);
#610=SHAPE_DEFINITION_REPRESENTATION(#611,#612);
#611=PRODUCT_DEFINITION_SHAPE('',$,#614);
#612=SHAPE_REPRESENTATION('',(#366),#604);
#613=PRODUCT_DEFINITION_CONTEXT('part definition',#618,'design');
#614=PRODUCT_DEFINITION('TR 4HR 100x120x6','101012',#615,#613);
#615=PRODUCT_DEFINITION_FORMATION('',$,#620);
#616=PRODUCT_RELATED_PRODUCT_CATEGORY('101012','101012',(#620));
#617=APPLICATION_PROTOCOL_DEFINITION('international standard',
'automotive_design',2009,#618);
#618=APPLICATION_CONTEXT(
'Core Data for Automotive Mechanical Design Process');
#619=PRODUCT_CONTEXT('part definition',#618,'mechanical');
#620=PRODUCT('TR 4HR 100x120x6','101012','TR 4HR 100x120x6',(#619));
#621=PRESENTATION_STYLE_ASSIGNMENT((#622));
#622=SURFACE_STYLE_USAGE(.BOTH.,#623);
#623=SURFACE_SIDE_STYLE('',(#624));
#624=SURFACE_STYLE_FILL_AREA(#625);
#625=FILL_AREA_STYLE('',(#626));
#626=FILL_AREA_STYLE_COLOUR('',#627);
#627=COLOUR_RGB('',0.811764705882353,0.8,0.823529411764706);
ENDSEC;
END-ISO-10303-21;
